tablaturas, partituras y acordes para guitarra
Busca por banda/artista:
 
y/o título de la canción:
A B C D E F G H I J K L M N O P Q R S T U V W X Y Z 0 1 2 3 4 5 6 7 8 9 / Top 100 tabs
Categorías
Usuarios
usuario:
Darse de alta
password:
Artistas más visitados
Publicidad
TOP acordes y tablaturas de Metallica


Estás en: Inicio > Letra M > Acordes y tablaturas de Metallica > Unforgiven Ii Intro
Unforgiven Ii Intro
de Metallica
Puntúa este acorde/tab:      
(0.3/5)
Reportar este acorde/tab
  Añadir a tus favoritos
  Imprimir


                            THE UNFORGIVEN II (INTRO)
                            As recorded by METALLICA
                         
                         
            Words and Music by James Hetfield,Lars Ulrich,Kirk Hammett


--------------------------------------------------------------------------------
Legend
------

 h  = hammer-on |  = bar
 p  = pull-off||  = double bar
 b  = bend||* = repeat start
 r  = bend release*|| = repeat end
 /  = slide up/down*|  = double bar (end)
[5] = nat. harmonic !  = repeat beat (¼,8th)
<5> = art. harmonic!!  = repeat beat (16th)
 ~  = vibrato %  = repeat measure
 tr = trill :  = bar (freetime)
 T  = tapdu  = tremolo bar dip
 TP = trem. picking d  = tremolo bar down
 PM = palm muting u  = tremolo bar up
 S  = slapud  = tremolo bar inverted dip
 P  = pop =  = hold (bend or tremolo bar)
--------------------------------------------------------------------------------

A5 [x 0 2 2 x 0] 
C5 [x 3 5 5 x 3] 
G5 [3 5 5 x x 3] 
E5 [0 2 x x x 0] 

--------------------------------------------------------------------------------
                                                                 
E||-----------|-------------------------------------------------|
B||-----------|-------------------------------------------------|
G||-----------|-------------------------------------------------|
D||--3--------|--7----7/-9/-10--12/-10/-12--------12--14/---12--|
A||-----------|-------------------------------------------------|
E||-----------|--5----5/-7/-----10/-8/--10--------10--12/---10--|


                   
------------------|
------------------|
------------------|
--10/-12/-10--10--|
------------------|
--8/--10/---------|


                                                                 
----------------------------------------------------------------|
----------------------------------------------------------------|
----------------------------------------------------------------|
--10--------10--7/-9/-10--12/-10/-12--------12--12/-7--7/-9/-7--|
----------------------------------------------------------------|
------------8---5/-7/-----10/-8/--10--------10--10/-5--5/-7/-5--|


                                                                                
--------0----------------------------3-----------|-----------------------------|
-----------1-----------------3b-5----------------|-------------------------12--|
--------------------------0-------------------2/-|--5----5--7--------7b-9r-7---|
-----2-----------------2-------------------------|-----------------------------|
--0-----------0--2--3----------------------------|-----------------------------|
-------------------------------------------------|-----------------------------|


                                                                                
----------------------3-----3-----3---------------------------------------------
--12----12--12--9--3b-5r-3--3--------3b-5r-3--3-----0--------1/-3/-1--0---------
----------------4--------------------------------------0-----2/-4/-2--0--------2
----------------------------------------------------------2-----------------2---
-------------------------------------------------------------------------0------
-------------------------------3-----------------0------------------------------


                                                                     
----------3--------3-----3-----3-----------------------------------||
--3b-5----------------3--3--------3b-5r-3--3-----0--------1/-3--1--||
----------------------------------------------------0-----2/-4--2--||
-------------------------------------------------------2-----------||
-------------------------------------------------------------------||
----------------------------3-----------------0--------------------||


		   
AcordesyTabs.com © 2008 Acordes y Tablaturas para guitarra. Tabs and Chords for guitar. Aviso Legal - Contacto
El uso de este sitio está sujeto a la aceptación de los términos y condiciones (33 usuarios online)