tablaturas, partituras y acordes para guitarra
Busca por banda/artista:
 
y/o título de la canción:
A B C D E F G H I J K L M N O P Q R S T U V W X Y Z 0 1 2 3 4 5 6 7 8 9 / Top 100 tabs
Categorías
Usuarios
usuario:
Darse de alta
password:
Artistas más visitados
Publicidad
TOP acordes y tablaturas de Green day


Estás en: Inicio > Letra G > Acordes y tablaturas de Green day > Basket case
Basket case
de Green day
Puntúa este acorde/tab:      
(0.5/5)
Reportar este acorde/tab
  Añadir a tus favoritos
  Imprimir

Intro

e-------------------------|-------------------------|-------------------------|-------------------------|
H-------------------------|-------------------------|-------------------------|-------------------------|
G-------------------------|-------------------------|-------------------------|-------------------------|
D-9--9--9--9--9--9--9--9--|-------------------------|-6--6--6--6--6--6--6--6--|-------------------------|
A-7--7--7--7--7--7--7--7--|-9--9--9--9--9--9--9--9--|-4--4--4--4--4--4--4--4--|-6--6--6--6--6--6--6--6--|
E-------------------------|-7--7--7--7--7--7--7--7--|-------------------------|-4--4--4--4--4--4--4--4--|
pm.....    .....    .............    .....    .............    .....    .............    .....    .......

e-------------------------|-------------------------|-------------------------|
H-------------------------|-------------------------|-------------------------|
G-------------------------|-------------------------|-------------------------|
D-------------------------|-9--9--9--9--9--9--9--9--|-------------------------|
A-7--7--7--7--7--7--7--7--|-7--7--7--7--7--7--7--7--|-9--9--9--9--9--9--9--9--|
E-5--5--5--5--5--5--5--5--|-------------------------|-7--7--7--7--7--7--7--7--|
pm.....    .....    .............    .....    .............    .....    ......

Play this 2 trimes with the Lyrics:
Do you have the Time to listen to me whine
about nothin´and everything all at once.
I am one of those melodramatic fools
neurotic to the bone no doubt about it.

Chorus

e-------------------------|-------------------------|-------------------------|
H-------------------------|-------------------------|-------------------------|
G-------------------------|-------------------------|-------------------------|
D-------------------------|-------------------------|-9--9--9--9--9--9--9--9--|
A-7--7--7--7--7--7--7--7--|-9--9--9--9--9--9--9--9--|-7--7--7--7--7--7--7--7--|
E-5--5--5--5--5--5--5--5--|-7--7--7--7--7--7--7--7--|-------------------------|
pm.....    .....    .............    .....    .............    .....    ......

Play this 2 Times with the Lyrics:
Sometimes I give myself the Creeps.
Sometimes my Mind plays tricks on me.

e-------------------------|-------------------------|-------------------------|------------|
H-------------------------|-------------------------|-------------------------|------------|
G-------------------------|-------------------------|-------------------------|-9---7---6--|
D-------------------------|-------------------------|-------------------------|-9---7---6--|
A-7--7--7--7--7--7--7--7--|-9--9--9--9--9--9--9--9--|-9--9--9--9--9--9--9--9--|-7---5---4--|
E-5--5--5--5--5--5--5--5--|-7--7--7--7--7--7--7--7--|-7--7--7--7--7--7--7--7--|------------|
pm.....    .....    .............    .....    .............    .....    ......

Play this with the Lyrics:
It all keeps adding up I think I´m crackin up.

e-------------------------|-------------------------|
H-------------------------|-------------------------|
G-------------------------|-------------------------|
D-7--7--7--7--7--7--7--7--|-9--9--9--9--9--9--9--9--|
A-7--7--7--7--7--7--7--7--|-9--9--9--9--9--9--9--9--|
E-5--5--5--5--5--5--5--5--|-7--7--7--7--7--7--7--7--|

Play this with the Lyrics:
Am I just paranoid, am I just stoned?

Pre-Verse

e----------------------------------------|
H----------------------------------------|
G-9---9--9------------6---6--6-----------|
D-9---9--9--9---9--9--6---6--6--9---9--9-|
A-7---7--7--9---9--9--4---4--4--9---9--9-|
E-----------7---7--7------------7---7--7-|

Play this 2 Times

Verse

e-------------------------|-------------------------|-------------------------|-------------------------|
H-------------------------|-------------------------|-------------------------|-------------------------|
G-9--9--9--9--9--9--9--9--|-------------------------|-6--6--6--6--6--6--6--6--|-------------------------|
D-9--9--9--9--9--9--9--9--|-9--9--9--9--9--9--9--9--|-6--6--6--6--6--6--6--6--|-6--6--6--6--6--6--6--6--|
A-7--7--7--7--7--7--7--7--|-9--9--9--9--9--9--9--9--|-4--4--4--4--4--4--4--4--|-6--6--6--6--6--6--6--6--|
E-------------------------|-7--7--7--7--7--7--7--7--|-------------------------|-4--4--4--4--4--4--4--4--|

e-------------------------|-------------------------|-------------------------|
H-------------------------|-------------------------|-------------------------|
G-------------------------|-9--9--9--9--9--9--9--9--|-------------------------|
D-7--7--7--7--7--7--7--7--|-9--9--9--9--9--9--9--9--|-9--9--9--9--9--9--9--9--|
A-7--7--7--7--7--7--7--7--|-7--7--7--7--7--7--7--7--|-9--9--9--9--9--9--9--9--|
E-5--5--5--5--5--5--5--5--|-------------------------|-7--7--7--7--7--7--7--7--|

Play this 2 Times with the Lyrics:
I went to a shrink to analize my dreams
she said it´s lack of Sex that´s bringin´ me down.
I went to a whore she said my life´s a bore
just quit my whining ´cause it´s bringin´ her down.

Chorus

e-------------------------|-------------------------|-------------------------|
H-------------------------|-------------------------|-------------------------|
G-------------------------|-------------------------|-9--9--9--9--9--9--9--9--|
D-7--7--7--7--7--7--7--7--|-9--9--9--9--9--9--9--9--|-9--9--9--9--9--9--9--9--|
A-7--7--7--7--7--7--7--7--|-9--9--9--9--9--9--9--9--|-7--7--7--7--7--7--7--7--|
E-5--5--5--5--5--5--5--5--|-7--7--7--7--7--7--7--7--|-------------------------|

Play this 2 Times with the Lyrics:
Sometimes I give myself the Creeps.
Sometimes my Mind plays tricks on me.

e-------------------------|-------------------------|-------------------------|------------|
H-------------------------|-------------------------|-------------------------|------------|
G-------------------------|-------------------------|-------------------------|-9---7---6--|
D-7--7--7--7--7--7--7--7--|-9--9--9--9--9--9--9--9--|-9--9--9--9--9--9--9--9--|-9---7---6--|
A-7--7--7--7--7--7--7--7--|-9--9--9--9--9--9--9--9--|-9--9--9--9--9--9--9--9--|-7---5---4--|
E-5--5--5--5--5--5--5--5--|-7--7--7--7--7--7--7--7--|-7--7--7--7--7--7--7--7--|------------|

Play this with the Lyrics:
It all keeps adding up I think I´m crackin up.

e-------------------------|-------------------------|
H-------------------------|-------------------------|
G-------------------------|-------------------------|
D-7--7--7--7--7--7--7--7--|-9--9--9--9--9--9--9--9--|
A-7--7--7--7--7--7--7--7--|-9--9--9--9--9--9--9--9--|
E-5--5--5--5--5--5--5--5--|-7--7--7--7--7--7--7--7--|

Play this with the Lyrics:
Am I just paranoid, ah yeah yeah yeah!

Pre-Verse

e----------------------------------------|
H----------------------------------------|
G-9---9--9------------6---6--6-----------|
D-9---9--9--9---9--9--6---6--6--9---9--9-|
A-7---7--7--9---9--9--4---4--4--9---9--9-|
E-----------7---7--7------------7---7--7-|

Play this 4 Times

Bridge

e-------------------------|-------------------------|-------------------------|
H-------------------------|-------------------------|-------------------------|
G-------------------------|-------------------------|-------------------------|
D-7--7--7--7--7--7--7--7--|-7--7--7--7--7--7--7--7--|-9--9--9--9--9--9--9--9--|
A-7--7--7--7--7--7--7--7--|-7--7--7--7--7--7--7--7--|-9--9--9--9--9--9--9--9--|
E-5--5--5--5--5--5--5--5--|-5--5--5--5--5--5--5--5--|-7--7--7--7--7--7--7--7--|
pm..........................................................................

Play this with the Lyrics:
Gasping to Control
So I better hold on(no chords)

Solo

e---------------------------------|---------------------------------|---------------------------------|
H---------------------------------|---------------------------------|---------------------------------|
G---------------------------------|-6---6---6--6--6-----------------|------------------9--9---9---9---|
D-2---2---2--2--2--9--9---9---9---|-6---6---6--6--6--6--6---6---6---|-7---7---7--7--7--9--9---9---9---|
A-2---2---2--2--2--9--9---9---9---|-4---4---4--4--4--6--6---6---6---|-7---7---7--7--7--7--7---7---7---|
E-0---0---0--0--0--7--7---7---7---|------------------4--4---4---4---|-5---5---5--5--5-----------------|

e---------------------------------|
H---------------------------------|
G---------------------------------|
D-9---9---9--9--9--9--9---9---9---|
A-9---9---9--9--9--9--9---9---9---|
E-7---7---7--7--7--7--7---7---7---|

Play this 2 Times

Chorus

e-------------------------|-------------------------|-------------------------|
H-------------------------|-------------------------|-------------------------|
G-------------------------|-------------------------|-------------------------|
D-------------------------|-------------------------|-9--9--9--9--9--9--9--9--|
A-7--7--7--7--7--7--7--7--|-9--9--9--9--9--9--9--9--|-7--7--7--7--7--7--7--7--|
E-5--5--5--5--5--5--5--5--|-7--7--7--7--7--7--7--7--|-------------------------|
pm.....    .....    .............    .....    .............    .....    ......

Play this 2 Times with the Lyrics:
Sometimes I give myself the Creeps.
Sometimes my Mind plays tricks on me.

e-------------------------|-------------------------|-------------------------|------------|
H-------------------------|-------------------------|-------------------------|------------|
G-------------------------|-------------------------|-------------------------|-9---7---6--|
D-------------------------|-------------------------|-------------------------|-9---7---6--|
A-7--7--7--7--7--7--7--7--|-9--9--9--9--9--9--9--9--|-9--9--9--9--9--9--9--9--|-7---5---4--|
E-5--5--5--5--5--5--5--5--|-7--7--7--7--7--7--7--7--|-7--7--7--7--7--7--7--7--|------------|
pm.....    .....    .............    .....    .............    .....    ......

Play this with the Lyrics:
It all keeps adding up I think I´m crackin up.

e-------------------------|-------------------------|
H-------------------------|-------------------------|
G-------------------------|-------------------------|
D-7--7--7--7--7--7--7--7--|-9--9--9--9--9--9--9--9--|
A-7--7--7--7--7--7--7--7--|-9--9--9--9--9--9--9--9--|
E-5--5--5--5--5--5--5--5--|-7--7--7--7--7--7--7--7--|

Play this with the Lyrics:
Am I just paranoid, am I just stoned?

Outro

e-----------------------------------------------------------------|
H-----------------------------------------------------------------|
G--------------------------------------9--9--9--------------------|
D-6---6--6--7---7--7--6--6--6--7---6---9--9--9--9---9--9---9---9--|
A-6---6--6--7---7--7--6--6--6--7---6---7--7--7--9---9--9---9---9--|
E-4---4--4--5---5--5--4--4--4--5---4------------7---7--7---7---7--|

Play this 3 Times

e---------------------------------------------------------------|
H---------------------------------------------------------------|
G--------------------------------------9------------------------|
D-6---6--6--7---7--7--6--6--6--7---6---9---9--------7---2---9---|
A-6---6--6--7---7--7--6--6--6--7---6---7---9--------7---2---9---|
E-4---4--4--5---5--5--4--4--4--5---4-------7--------5---0---7---|



		   
AcordesyTabs.com © 2008 Acordes y Tablaturas para guitarra. Tabs and Chords for guitar. Aviso Legal - Contacto
El uso de este sitio está sujeto a la aceptación de los términos y condiciones (32 usuarios online)