tablaturas, partituras y acordes para guitarra
Busca por banda/artista:
 
y/o título de la canción:
A B C D E F G H I J K L M N O P Q R S T U V W X Y Z 0 1 2 3 4 5 6 7 8 9 / Top 100 tabs
Categorías
Usuarios
usuario:
Darse de alta
password:
Artistas más visitados
Publicidad
TOP acordes y tablaturas de G-3


Estás en: Inicio > Letra G > Acordes y tablaturas de G-3 > Indecisión
Indecisión
de G-3
Puntúa este acorde/tab:      
(0.8/5)
Reportar este acorde/tab
  Añadir a tus favoritos
  Imprimir
el derecho de amar 
de aprender a sangrar

INTRO:  F#5-Em-B5
        F#5-Em-B5-A#5-B5

E- | --------------------------------------- | 
B- | --------------------------------------- | 
G- | --------------------------------------- | 
D- | --4-4---4-4---4-4---4---4-4-4---------- | 
A- | --4-4---4-4---4-4---4---4-4-4---------- | 
E- | --2-2---2-2---2-2---2---2-2-2---------- | 


E- | --------------------------------------- | 
B- | --------------------------------------- | 
G- | --------------------------------------- | 
D- | --4-4---4-4---4-4---4--------2--------- | 
A- | --4-4---4-4---4-4---4--------2--------- | 
E- | --2-2---2-2---2-2---2--0-2-3-0--------- | 


RIFF:

E- | ----------------- | 
B- | ----------------- | 
G- | ----------------- | 
D- | ---------2------- | 
A- | ---------2------- | 
E- | ---0-2-3-0------- | 


VERSO 1:

F#5                                     Riff
el derecho de amar de aprender a sangran
F#5                           Riff
a la deriva estan en la ciudad
F#5                                         Riff
la libertad de hablar y el gusto de arriesgar
F#5                                      Riff
puedes perder o ganar, la indecision mata

CORO:  
F#5 Em B5         F#5 Em B5  A#5 B5
       en silencio,      espe-ra-re
F#5 Em B5         F#5 Em B5
       en un sueño,      sin saber
F#5 Em B5          F#5 Em B5
       sin secretos,      intentare
F#5 Em B5         F#5 Em B5
       en un sueño,      llegare

VERSO 2:
F#5 
- RIFF
F#5                                         Riff
sobre el filo andare y entre espinas tambien
F#5                                 Riff
pudiendo cortare, sabngrando luchare
F#5                             Riff
y sobrevivire, mas no descansare
F#5                                     Riff
puedo perder o ganar, la indecision mata

REPETIR CORO
F#5 - Em - G5 - F#5 - G5 - Em    (x4)
REPETIR VERSO 1 Y CORO
F#5
 - RIFF

FINAL: 
F#5 		   
AcordesyTabs.com © 2008 Acordes y Tablaturas para guitarra. Tabs and Chords for guitar. Aviso Legal - Contacto
El uso de este sitio está sujeto a la aceptación de los términos y condiciones (31 usuarios online)