tablaturas, partituras y acordes para guitarra
Busca por banda/artista:
 
y/o título de la canción:
A B C D E F G H I J K L M N O P Q R S T U V W X Y Z 0 1 2 3 4 5 6 7 8 9 / Top 100 tabs
Categorías
Usuarios
usuario:
Darse de alta
password:
Artistas más visitados
Publicidad
TOP acordes y tablaturas de Gian marco


Estás en: Inicio > Letra G > Acordes y tablaturas de Gian marco > Ya tienes dueño
Ya tienes dueño
de Gian marco
Puntúa este acorde/tab:      
(0.5/5)
Reportar este acorde/tab
  Añadir a tus favoritos
  Imprimir
  INTRO    
e | -------0- | ------0- | ------0- | ------0-- | 
B | -----0--- | ----0--- | ----0--- | ----0---- | 
G | ----1---- | ---2---- | ---4---- | ---2----- | 
D | ---2----- | --4----- | --6----- | --2------ | 
A | --------- | -4------ | -6------ | -0------- | 
E | --0------ | -------- | -------- | --------- | 

e | -------0- | ------0- | ------0- | ------0--- | ------0---- | 
B | -----0--- | ----0--- | ----0--- | ----0--0-- | ----0--0--- | 
G | ----1---- | ---2---- | ---4---- | ---2----2- | ---2----2-- | 
D | ---2----- | --4----- | --6----- | --2------- | --2-------- | 
A | --------- | -4------ | -6------ | -0-------- | -0--------- | 
E | --0------ | -------- | -------- | ---------- | ----------- | 

  NO se porQUE quiero teNE...erte      |    COmo quisiEra darte un bEso
  SI estas tan lE...jos como EL sol    |    DArte mi MUndo y mas que Eso
  NO se porQUE empece a queREr...te    |    CAmbiar mi sANgre por lA tuya
e | ------0---- | -----0----- | -------0--- | ------0---- | 
B | ----(0)-0-- | ----0--0--- | -----0--0-- | ----0--0--- | 
G | ----1----1- | ---1----1-- | ----2----2- | ---2----2-- | 
D | ---2------- | -(1)-----1- | ---2------- | --2-------- | 
A | --2-------- | ----------- | -(0)------- | -0--------- | 
E | ----------- | ----------- | ----------- | ----------- | 

  LE tengo miE...do al aMO...or        |     COnstruirte uNA casa en la LU...na
e | ------0---- | -----0----- | ---------- | ----------- | 
B | ----(0)-0-- | ----0--0--- | -----1---- | -3h1----1-- | 
G | ----1----1- | ---1----1-- | ----0--0-- | ----0--0-0- | 
D | ---2------- | -(1)-----1- | ---2----2- | ------2---- | 
A | --2-------- | ----------- | -(0)------ | ----------- | 
E | ----------- | ----------- | ---------- | ----------- | 
         
  NO se si siENtes tu lo mIsmo         |     SI quiero vERte miro al ciElo
e | ------()-0--- | -----0----- | -------0--- | ------0---- | 
B | -----0----0-- | ----0--0--- | -----0--0-- | ----0--0--- | 
G | ----1------1- | ---1----1-- | ----2----2- | ---2----2-- | 
D | ---2--------- | -(1)-----1- | ---2------- | --2-------- | 
A | --2---------- | ----------- | -(0)------- | -0--------- | 
E | ------------- | ----------- | ----------- | ----------- | 

  NI quiero PREguntarmelO...           |     Y me conviErto en un lucE...ro
e | ------0---- | -----0----- | ---------- | ----------- | 
B | ----(0)-0-- | ----0--0--- | -----1---- | -3h1----1-- | 
G | ----1----1- | ---1----1-- | ----0--0-- | ----0--0-0- | 
D | ---2------- | -(1)-----1- | ---2----2- | ------2---- | 
A | --2-------- | ----------- | -(0)------ | ----------- | 
E | ----------- | ----------- | ---------- | ----------- | 

  LO mas difIsil del momEnto           |     LLEgar arrIba hasta tu cOrazón
e | ------0---- | -----0----- | -------0--- | ------0---- | 
B | ----(0)-0-- | ----0--0--- | -----0--0-- | ----0--0--- | 
G | ----1----1- | ---1----1-- | ----2----2- | ---2----2-- | 
D | ---2------- | -(1)-----1- | ---2------- | --2-------- | 
A | --2-------- | ----------- | -(0)------- | -0--------- | 
E | ----------- | ----------- | ----------- | ----------- | 

  ES que tu ciElo tiene otrO colo...OR  |    SEr un espIa loco pOr amo...OR
e | ------0---- | -----0----- | ---------- | -----0-- | 
B | ----(0)-0-- | ----0--0--- | -----1---- | ----1--- | 
G | ----1----1- | ---1----1-- | ----0--0-- | ---1---- | 
D | ---2------- | -(1)-----1- | ---2----2- | -(2)---- | 
A | --2-------- | ----------- | -(0)------ | -------- | 
E | ----------- | ----------- | ---------- | -------- | 

          E                F#m          G#m
 Y en mis noches     yo te sueño     y te tengo
          A          E                 F#m
 y en mis días me despierto     no te encuentro
        G#m          G#          C#m   ( C#m-B - A ) 
 la ilución se me hace agua y me olvidaba
             Am     E
 YA TIENES DUE...ÑO....   *(Regresar al principio)*

  NO se porQUE quiero tenE...erte   (no se porque quiero tenerte)   
  SI estas tan lE...jos como el SOL (no se porque quiero tenerte)  
e | ------()-0--- | -----0----- | -------0--- | ------0---- | 
B | -----0----0-- | ----0--0--- | -----0--0-- | ----0--0--- | 
G | ----1------1- | ---1----1-- | ----2----2- | ---2----2-- | 
D | ---2--------- | -(1)-----1- | ---2------- | --2-------- | 
A | --2---------- | ----------- | -(0)------- | -0--------- | 
E | ------------- | ----------- | ----------- | ----------- | 

  ()lara ra ra ra ra RA    ra rA ra ra   ()la rA uhm...    
e | --------0--- | -------0--- | -------0--- | -------0--- | -(4)- | 
B | ------0--0-- | -----0--0-- | -----0--0-- | -----0--0-- | -(5)- | 
G | -----1----1- | ----2----2- | ----4----4- | ----2----2- | -(4)- | 
D | ----2------- | ---4------- | ---6------- | ---2------- | -(6)- | 
A | ------------ | -(4)------- | -(6)------- | -(0)------- | ----- | 
E | --(0)------- | ----------- | ----------- | ----------- | ----- |  		   
AcordesyTabs.com © 2008 Acordes y Tablaturas para guitarra. Tabs and Chords for guitar. Aviso Legal - Contacto
El uso de este sitio está sujeto a la aceptación de los términos y condiciones (24 usuarios online)