tablaturas, partituras y acordes para guitarra
Busca por banda/artista:
 
y/o título de la canción:
A B C D E F G H I J K L M N O P Q R S T U V W X Y Z 0 1 2 3 4 5 6 7 8 9 / Top 100 tabs
Categorías
Usuarios
usuario:
Darse de alta
password:
Artistas más visitados
Publicidad
TOP acordes y tablaturas de Metallica


Estás en: Inicio > Letra M > Acordes y tablaturas de Metallica > Until It Sleeps
Until It Sleeps
de Metallica
Puntúa este acorde/tab:      
(0.4/5)
Reportar este acorde/tab
  Añadir a tus favoritos
  Imprimir



                  UNTIL IT SLEEPS
                  BY METALLICA, THE BEST BAND EVER

E----------------------------------4----------------------------------
B----------------------------------4----------------------------------
G---8--6---------------------------4----------------------------------
D---------9----8--6---4------4-----6----------------------------------
A-------------------------6--------6----------------------------------
E----------------------------------4----------------------------------


E------------------------------------------------------------------------
B------------------------------------------------------------------------
G------------------------------------------------------------------------
D------------------------------------------------------------------------
A--6--6--6--6--6--6--6--6--4--4--4--4--4--4--4--4--2--2--2--2--2--2--2--2
E--4--4--4--4--4--4--4--4--2--2--2--2--2--2--2--2--0--0--0--0--0--0--0--0

THIS IS THE CORRECT WAY TO PLAY THE COOL METALLICA SONG NOT THE OTHER TABS
TABBED BY CESAR DAVILA
		   
AcordesyTabs.com © 2008 Acordes y Tablaturas para guitarra. Tabs and Chords for guitar. Aviso Legal - Contacto
El uso de este sitio está sujeto a la aceptación de los términos y condiciones (32 usuarios online)