tablaturas, partituras y acordes para guitarra
Busca por banda/artista:
 
y/o título de la canción:
A B C D E F G H I J K L M N O P Q R S T U V W X Y Z 0 1 2 3 4 5 6 7 8 9 / Top 100 tabs
Categorías
Usuarios
usuario:
Darse de alta
password:
Artistas más visitados
Publicidad
TOP acordes y tablaturas de Leusemia


Estás en: Inicio > Letra L > Acordes y tablaturas de Leusemia > Al colegio no voy más
Al colegio no voy más
de Leusemia
Puntúa este acorde/tab:      
(0.3/5)
Reportar este acorde/tab
  Añadir a tus favoritos
  Imprimir
   INTRO:
E- | ---------------------------------------------------- | 
B- | ---------------------------------------------------- | 
G- | --6-6-6-6-6-6-------4/3---6-6-6-6/5/6/5/6/5/6------- | 
D- | --6-6-6-6-6-6-4~--4-4/3-6-6-6-6-6/5/6/5/6/5/6------- | 
A- | --4-4-4-4-4-4-4~--4-2/1-6-4-4-4-4/3/4/3/4/3/4------- | 
E- | --------------2~--2-----4--------------------------- | 


E- | ---------------------------------------------------- | 
B- | ---------------------------------------------------- | 
G- | --6-6-6-6-6-6-------4/3----------------------------- | 
D- | --6-6-6-6-6-6-4~--4-4/3-6--6-6-6-6-6-6/4-4-4-------- | 
A- | --4-4-4-4-4-4-4~--4-2/1-6--6-6-6-6-6-6/4-4-4-------- | 
E- | --------------2~--2-----4--4-4-4-4-4-4/2-2-2-------- | 


  VERSO 1:
   F#5                     G#5 
  Me ha llegado al pincho, la leccion de hoy,
     B5         F#5      B5 C#5 
  matemática, religion.
   F#5                     G#5 
  Pasar lista o cantar el himno al dios
   B5             F#5      B5 C#5 
  o respetar al profesor.


  CORO:  

       Al colegio no voy mas ni huevon
E- | ---------------------------------------------------- | 
B- | ---------------------------------------------------- | 
G- | --4-4-4-4-6-6-6-6-6----------8-8/6/4---------------- | 
D- | --4-4-4-4-6-6-6-6-6-4-4-4-4--8-8/6/4---------------- | 
A- | --2-2-2-2-4-4-4-4-4-4-4-4-4--6-6/4/2---------------- | 
E- | --------------------2-2-2-2------------------------- | 


      Que se queden con su mierda entera
E- | ---------------------------------------------------- | 
B- | ---------------------------------------------------- | 
G- | --4-4-4-4-6-6-6-6-6-8-8-8-8-8----------------------- | 
D- | --4-4-4-4-6-6-6-6-6-8-8-8-8-8-8-8-8-8--------------- | 
A- | --2-2-2-2-4-4-4-4-4-6-6-6-6-6-8-8-8-8--------------- | 
E- | ------------------------------6-6-6-6--------------- | 

 
 
       Al colegio no voy mas ni huevon ,  para que
E- | ---------------------------------------------------- | 
B- | ---------------------------------------------------- | 
G- | --4-4-4-4-6-6-6-6-6----------8-8/6/4--4-4-4/6-6----- | 
D- | --4-4-4-4-6-6-6-6-6-4-4-4-4--8-8/6/4--4-4-4/6-6----- | 
A- | --2-2-2-2-4-4-4-4-4-4-4-4-4--6-6/4/2--2-2-2/4-4----- | 
E- | --------------------2-2-2-2------------------------- | 


  VERSO 2:
   F#5                     G#5 
  No he tenido la primaria o superior
     B5             F#5      B5 C#5 
  siempre la misma opresion.


   F#5-G#5 

   B5-F#5-B5-C#5 


  CORO:
  B5   C#5          F#5      D#5 C#5 B5
  Al colegio no voy mas ni huevon
   B5     C#5           D#5     B5
  que se queden con su mierda entera
   B5   C#5           F#5      D#5 C#5 B5
  A esa mierda no voy mas ni huevon,  
    B5   C#5         D#5      B5
  que se queden con toda esa huevada educativa
   B5   C#5        F#5       D#5 C#5 B5
  Al colegio no voy mas ni huevon,       
   B5  C#5   B5  C#5  
  para que, para que
         F#5      D#5 
  si yo ya se un monton
   B5  C#5   B5  C#5    B5  C#5   B5  C#5
  Para que, para que , para que, para que
     F#5         D#5       B5         C#5
  Para nada, para nada, para nada, para NADA 		   
AcordesyTabs.com © 2008 Acordes y Tablaturas para guitarra. Tabs and Chords for guitar. Aviso Legal - Contacto
El uso de este sitio está sujeto a la aceptación de los términos y condiciones (37 usuarios online)