tablaturas, partituras y acordes para guitarra
Busca por banda/artista:
 
y/o título de la canción:
A B C D E F G H I J K L M N O P Q R S T U V W X Y Z 0 1 2 3 4 5 6 7 8 9 / Top 100 tabs
Categorías
Usuarios
usuario:
Darse de alta
password:
Artistas más visitados
Publicidad
TOP acordes y tablaturas de Metallica


Estás en: Inicio > Letra M > Acordes y tablaturas de Metallica > Welcome Home
Welcome Home
de Metallica
Puntúa este acorde/tab:      
(0.5/5)
Reportar este acorde/tab
  Añadir a tus favoritos
  Imprimir




        WELCOME HOME (SANITARIUM)
                By MetallicA



      This is the correct way to play the intro




  Intro:

        < > = let ring

e|-----<12>--------3--353--/2---------|
B|---------<12>-----------------------|
G|------------------------------------|
D|------------------------------------|
A|------------------------------------|
E|--0---------------------------------|

e|-----<12>-----------2----2---3------|
B|---------<12>---------0-------------|
G|------------------------------------|
A|------------------------------------|
E|--0---------------------------------|

e|-----<12>--------------<12>---------|
B|---------<12>--------------<12>-----|
G|------------------------------------|
D|------------------------------------|
A|------------------------------------|
E|--0---------------0-----------------|

e|-----<12>-------------<12>----------|
B|---------<12>-------------<12>------|
G|------------------------------<12>--|
D|------------------------------------|
A|------------------------------------|
E|--0---------------0-----------------|

e|------------------------------------|
B|------------------------------------|
G|-----0----0----0--------------------|
D|----4----5----7----0-------0--------|
A|---2----3----5----4------/2-------0-|
E|--0----0----0----5---5--3----3--5---|




Tabbed by AN1186@webtv.net


		   
AcordesyTabs.com © 2008 Acordes y Tablaturas para guitarra. Tabs and Chords for guitar. Aviso Legal - Contacto
El uso de este sitio está sujeto a la aceptación de los términos y condiciones (27 usuarios online)