tablaturas, partituras y acordes para guitarra
Busca por banda/artista:
 
y/o título de la canción:
A B C D E F G H I J K L M N O P Q R S T U V W X Y Z 0 1 2 3 4 5 6 7 8 9 / Top 100 tabs
Categorías
Usuarios
usuario:
Darse de alta
password:
Artistas más visitados
Publicidad
TOP acordes y tablaturas de Metallica


Estás en: Inicio > Letra M > Acordes y tablaturas de Metallica > Where The Wild Things Are
Where The Wild Things Are
de Metallica
Puntúa este acorde/tab:      
(0.1/5)
Reportar este acorde/tab
  Añadir a tus favoritos
  Imprimir
#----------------------------------PLEASE NOTE---------------------------------#
#This file is the author's own work and represents their interpretation of the #
#song. You may only use this file for private study, scholarship, or research. #
#------------------------------------------------------------------------------#
#

Date: Thu, 27 Mar 1997 16:47:53 -0500
From: music-box@juno.com (Andrew M Reasoner)
Subject: TAB: 'Where The Wild Thing Are' by 'Metallica'

Where the wild thing are - Metallica - Reload
Tabed By Andrew Reasoner (music-box@juno.com)

eb-------------------------------------  -------  
Bb-------------------------------------  -------  
Gb--4-4--4-4--4-----4--4-----3--3-----0  -------  
Db--5-5--5-5----5-2------5-2------5-2--  -------  
Ab-------------------------------------  -------  
Eb-------------------------------------  -0-3~~0  


   Guitar 1            Guitar 2
Gb--4-4-4-4------  --------------
Db--5-5-5-5-----9  --------------
Ab--------------7  -5-5-5-5-----2
Eb----------0-0--  -3-3-3-3-0-0-0



Gb-------------------41
Db--5-5-5-5-5-5-5-2--52
Ab--5-5-5-5-5-5-5-2-----
Eb--3-3-3-3-3-3-3p0-----

"Steal dreams and give to you."

                   x2        x1  
Gb--------------------       -------------------
Db--7-7--6-6----------       -7-7--6-6--4-4--5-5
Ab--5-5--4-4--8-8--5-5       -5-5--4-4--2-2--3-3
Eb------------6-6--3-3       -------------------
chorus

So wake up sleepy one
It's time to save your world

Steel dreams and give to you
Shop lift a thought or two
All children touch the sun
Burn your fingers one by one
By one

Will this earth be good to you
Keep you clean or stained through

So wake up sleepy one
It's time to save your world
You're where the wild things are
Yeah, toy soldiers off to war

Big eyes to open too
Beating now under sun and moon
But does heaven know you're here?
And did they give you smiles or tears?
No, no tears

Will this earth be good to you?
Keep you clean or stained through

So wake up sleepy one
It's time to save your world
You're where the wild things are
Yeah, toy soldiers off to war

You swing your ass all down
Call to arms are drawn out sound
Toy horses start the charge
Robots, chessmen standing guard
We shall never surrender

All children touch the sun
Burn your fingers one by one
Will this earth be good to you?
Keep you clean or stained through

So wake up sleepy one
It's time to save your world
You're where the wild things are
Yeah, toy soldiers off to war
Off to war
Off to war

So close your ?....?


Look at the Dynamic Metallica Bootleg Page at
                 http://pluto.njcc.com/~carlr441/skip.htm
Join the Until It sleep  Metallica  Ring at
                  http://pluto.njcc.com/~carlr441/until.htm
Look at my metallica site at  http://pluto.njcc.com/~carlr441/METAL2.HTM
		   
AcordesyTabs.com © 2008 Acordes y Tablaturas para guitarra. Tabs and Chords for guitar. Aviso Legal - Contacto
El uso de este sitio está sujeto a la aceptación de los términos y condiciones (100 usuarios online)