tablaturas, partituras y acordes para guitarra
Busca por banda/artista:
 
y/o título de la canción:
A B C D E F G H I J K L M N O P Q R S T U V W X Y Z 0 1 2 3 4 5 6 7 8 9 / Top 100 tabs
Categorías
Usuarios
usuario:
Darse de alta
password:
Artistas más visitados
Publicidad
TOP acordes y tablaturas de Metallica


Estás en: Inicio > Letra M > Acordes y tablaturas de Metallica > Where The Wild Things Are
Where The Wild Things Are
de Metallica
Puntúa este acorde/tab:      
(0.2/5)
Reportar este acorde/tab
  Añadir a tus favoritos
  Imprimir
Where the Wild Things Are
written by Hetfield, Ulrich and Newstead
as performed on ReLoad
tab by Phil Boyle, The Fixxxer, and Ron Shea
intro by petrslavik@email.cz



tune all guitars down 1/2 step                       first  second
1) Intro                                             time    time
eb-------------------------------------------------- ----- ---------
Bb--0~-0~------------------------------------------- ----- ---------
Gb--0~-0~--4-----5--4~--4-4-----5--3~-3-3-----5--0~- ----- ---------
Db--2~-2~-----2--------------2-------------2-------- ----- ---------
Ab--2~-3~--3--------------3-------------3----------- ----- ---3-2-0-
Eb--0~-0~------------------------------------------- -0-1- -0-------

clean
"So wake up sleepy one."


2a) Kirk           2b) James (right before verse)
Gb---------------  --------------
Db--9-9-9-9-----9  --------------
Ab--8-8-8-8-----7  -5-5-5-5-----2
Eb----------0-0--  -3-3-3-3-0-0-0
           pm..     .............


3)
Gb-------------------41
Db--5-5-5-5-5-5-5-2--52
Ab--5-5-5-5-5-5-5-2-----
Eb--3-3-3-3-3-3-3p0-----
   pm..........
verse
"Steal dreams and give to you."


4)
Gb--------------------       -----------4-4-----
Db--7-7--6-6---------- twice -7-7--6-6--2-2--5-5
Ab--5-5--4-4--8-8--5-5 then  -5-5--4-4-------3-3
Eb------------6-6--3-3       -------------------
chorus


Solo: Where The Wild Things Are, by: Jon Symons.
With wah
------------------------------------
------------------------------------
-9-9-/--10-10-/12-/13--/12-12-------
------------------------------------ 2x
-7-7-/--8---8--/10-/11--/12-12------
------------------------------------

----------------------------------------------
----------------------------------------------
-9-9-/-10-10-/12-/13/14-14-/--17161716-----
----------------------------------------------
-7-7-/-8---8--/10-/11/12-12-/--15141514----
----------------------------------------------

-----------------------------------------------------------------------
-15-------15-------------15----------15----15--------------------------
-14b16----14b16r---------14b16-------14b16-14b16----14b16--------------
-------------------14~--------------------------------------14---14----
-----------------------------------------------------------------------
-----------------------------------------------------------------------

-------------------         ---------------------15---------------
-15----------------         --15-----15---15---------15-----------
-14b-r--------2x---         --12--h--14---14b16-----------14b16---
--------14---------         -------------------------------------- 
-------------------         --------------------------------------
-------------------         --------------------------------------

---------------------------------------
--15-----------------------------12\-
--14b16r-p12---14b16rp12---------12\-
---------------------------14----------2x
---------------------------------------
---------------------------------------

--------------------------------------------------------15------------------
--/////15-------15-------15-------15------------15--17------17--15------15--
-----------16~------16~------16~------16~---------------------------16------
----------------------------------------------------------------------------
----------------------------------------------------------------------------
----------------------------------------------------------------------------

----------------------------------------------------------------------------
--15-15-----14--14------11----11--12--12--------15-15-15-15p14--------------
--17-b-17-b-16b-16b-----13b---13b-14b-14---17b-------------------14---------
---------------------------------------------------------------------14~~~--
----------------------------------------------------------------------------
----------------------------------------------------------------------------

----------------------------------------------------
----------------------------------------------------
----1615----1615--------------12b-----------------
---------------------------------------------14-----
----1312----1312----------------------------------
----------------------------------------------------

---------------------------------------12---------12-----
----15-15-15-15p14---------------------15b--------15b----
----------------------14---------------------------------
----------------------------14---------------------------
---------------------------------------------------------
---------------------------------------------------------

So wake up sleepy one
It's time to save your world

Steel dreams and give to you
Shop lift a thought or two
All children touch the sun
Burn your fingers one by one
By one

Will this earth be good to you
Keep you clean or stained through

So wake up sleepy one
It's time to save your world
You're where the wild things are
Yeah, toy soldiers off to war

Big eyes to open too
Beating now under sun and moon
But does heaven know you're here?
And did they give you smiles or tears?
No, no tears

Will this earth be good to you?
Keep you clean or stained through

So wake up sleepy one
It's time to save your world
You're where the wild things are
Yeah, toy soldiers off to war

You swing your ass all down
Call to arms are drawn out sound
Toy horses start the charge
Robots, chessmen standing guard
We shall never surrender

All children touch the sun
Burn your fingers one by one
Will this earth be good to you?
Keep you clean or stained through

So wake up sleepy one
It's time to save your world
You're where the wild things are
Yeah, toy soldiers off to war
Off to war
Off to war

So close your ?....?
		   
AcordesyTabs.com © 2008 Acordes y Tablaturas para guitarra. Tabs and Chords for guitar. Aviso Legal - Contacto
El uso de este sitio está sujeto a la aceptación de los términos y condiciones (78 usuarios online)