tablaturas, partituras y acordes para guitarra
Busca por banda/artista:
 
y/o título de la canción:
A B C D E F G H I J K L M N O P Q R S T U V W X Y Z 0 1 2 3 4 5 6 7 8 9 / Top 100 tabs
Categorías
Usuarios
usuario:
Darse de alta
password:
Artistas más visitados
Publicidad
TOP acordes y tablaturas de Incubus


11 a.m.
de Incubus
Puntúa este acorde/tab:      
(0.4/5)
Reportar este acorde/tab
  Añadir a tus favoritos
  Imprimir
Introdução e Refrão
G|--------------------------------------------------|
D|--------------------------------------------------|
A|-----------------------------------5-5-5/3-333333-|
E|-0-0-0-0-0-0-8-8-8-8-8-8-0-0-0-0-0----------------|

G|-------------------------------------------|
D|-------------------------------------------|
A|-------------------------------------------|
E|-0-0-0-0-0-0--8-8-8-8-8--5-5-5-5/8-8-8-8-8-|	

Versos
G|---------------------------------------------------|
D|---------------------------------------------------|
A|---------------------------------------------------|
E|-0--0-5/8----0--0-5/8-10----0--0-5/8----10-10—8-8-8|
      
Ponte
G|---------------------------------------|
D|---------------------------------------|
A|---------------------------------------|	
E|--5-5-5-5-5-5-3-3-3-3-3-3-3-1-1-1-1-1--|

Variação lenta
G|--------------------------------------------------|   
D|--------------------------------------------------|   
A|--------------------------------------------------|   
E|-3--1--3--1-1-3-1--3--1-1-3--1--3--1-1-3--1-3-1-1-|		   
AcordesyTabs.com © 2008 Acordes y Tablaturas para guitarra. Tabs and Chords for guitar. Aviso Legal - Contacto
El uso de este sitio está sujeto a la aceptación de los términos y condiciones (45 usuarios online)