tablaturas, partituras y acordes para guitarra
Busca por banda/artista:
 
y/o título de la canción:
A B C D E F G H I J K L M N O P Q R S T U V W X Y Z 0 1 2 3 4 5 6 7 8 9 / Top 100 tabs
Categorías
Usuarios
usuario:
Darse de alta
password:
Artistas más visitados
Publicidad
TOP acordes y tablaturas de Incubus


Estás en: Inicio > Letra I > Acordes y tablaturas de Incubus > Are you in ?
Are you in ?
de Incubus
Puntúa este acorde/tab:      
(0.7/5)
Reportar este acorde/tab
  Añadir a tus favoritos
  Imprimir
Introdução
G|-14/16------14/16----------|----14h16--14---------------------|
D|-14/16------14/16----------|--------------16------------------|
A|-------------------9~------|-----------------0----------------|
E|----------------------7~---|----------------------------------|

Versos
G|---------------------------------------------------------------|
D|---------------------------------------------------------------|
A|-5—-5-5-2----------0-9—0-12-0-14----5—-5-5-2---------2-2-------|
E|----------5-5—-2-----------------------------5-5—-2------0h2-0-|

Refrão
G|--------------------------------------|----------|
D|--------------------------------------|----------|
A|--------------------------------------|----------|
E|-10-10-10-10/5-5-5-5-/2-2-2-2-2-2-2-2-|-5-5-7-7--|

Break (só seguir o ritmo)
G|--------------------------------|
D|--------------5-----7-----------|
A|------------7-----9------10--7--|
E|--3~--0~--7-----7-----7---------|

G|-14h16--14------|
D|-----------16---|
A|--------------0-|
E|----------------|		   
AcordesyTabs.com © 2008 Acordes y Tablaturas para guitarra. Tabs and Chords for guitar. Aviso Legal - Contacto
El uso de este sitio está sujeto a la aceptación de los términos y condiciones (22 usuarios online)