tablaturas, partituras y acordes para guitarra
Busca por banda/artista:
 
y/o título de la canción:
A B C D E F G H I J K L M N O P Q R S T U V W X Y Z 0 1 2 3 4 5 6 7 8 9 / Top 100 tabs
Categorías
Usuarios
usuario:
Darse de alta
password:
Artistas más visitados
Publicidad
TOP acordes y tablaturas de Green day


Waiting
de Green day
Puntúa este acorde/tab:      
(0.5/5)
Reportar este acorde/tab
  Añadir a tus favoritos
  Imprimir

Song: Waiting
Band: Green Day

Riff A:
G#5 //////  C#5 //////  A#5 //////  C#5 //////

Riff B:
F5 //////  E5 ////// D#5 //////  A#5 ////////

Riff C:
---------------------------
---------------------------
-4-4-4-------4-4-4-------4-
-4-4-4-4-4-4-4-4-4-4-4-4-4-
-------4-4-4-------4-4-4--
---------------------------

Riff D:
-------------------------------------------
-------------------------------------------
-4-4-4-------4-4-4-------4---4-------------
-4-4-4-4-4-4-4-4-4-4-4-4-4-4-4-4-----------
-------4-4-4-------4-4-4---4---4-----------
-------------------------------------------

Solo:
-------------------------------------------------------------
-------------------------------------------------------------
-8----------------------/8-----------------------------------
------10---8-10-11-10-8-------10---8-10-11-10-8-10---------8-
----------------------------------------------------11~------
-------------------------------------------------------------

-----------------------------------
-----------------------------------
---------------7---10-7------------
-10-11-10-8--8---8------8-6-6--6-6-
-----------------------------------
-----------------------------------



		   
AcordesyTabs.com © 2008 Acordes y Tablaturas para guitarra. Tabs and Chords for guitar. Aviso Legal - Contacto
El uso de este sitio está sujeto a la aceptación de los términos y condiciones (23 usuarios online)