tablaturas, partituras y acordes para guitarra
Busca por banda/artista:
 
y/o título de la canción:
A B C D E F G H I J K L M N O P Q R S T U V W X Y Z 0 1 2 3 4 5 6 7 8 9 / Top 100 tabs
Categorías
Usuarios
usuario:
Darse de alta
password:
Artistas más visitados
Publicidad
TOP acordes y tablaturas de Beatles


Blackbird
de Beatles
Puntúa este acorde/tab:      
(0.7/5)
Reportar este acorde/tab
  Añadir a tus favoritos
  Imprimir
Song: Blackbird
Artist: Lennon/McCartney (Paul’s song)
Album: The Beatles (White Album)

I’ve seen several tabs of “Blackbird” online, all of which sound good, but they’

    1                2
E]--0------------------------------------------------------
A]----------1-------3/12-----12-----12------12-----12------
D]-----0--------0---------0--------------0------0----------
G]---------------------------------------------------------
B]----------0-------2/10--------10----------10---------10--
E]--3------------------------------------------------------
           3                         4
E]----------------3-----------5----------------------------
A]--12-----5------------7------------8----8----8-----8-----
D]-----0------0------0-----0-----0------0---------0-----0--
G]---------------------------------------------------------
B]---------3------4-----5-----6------7-------7-------6-----
E]---------------------------------------------------------
                 5             6
E]---------------------3-----------------------------------
A]-8------8------7-------------5-----5------5-----4-----4--
D]-----------0------0------0------0-----------0------0-----
G]---------------------------------------------------------
B]----6----------5-----4-------3---------3--------3--------
E]---------------------------------------------------------
             7
E]---------------------------------------------------------
A]-----4-----3-------3-----3-----2------2-------2----------
D]-------0--------0----------0-------0-------------0-------
G]---------------------------------------------------------
B]--3--------2----------2---------0----------0-------------
E]---------------------------------------------------------






   8
E]---------------------------------------------------------
A]--1-----1------1-------0--------0--------0---------------
D]-----0------------0---------0---------------0------------
G]---------------------------------------------------------
B]--0--------0---------------------------------------------
E]-----------------------3-------------3-------------------

Then repeat this for verses.  If you know the song, or listen to it, you’ll see 
		   
AcordesyTabs.com © 2008 Acordes y Tablaturas para guitarra. Tabs and Chords for guitar. Aviso Legal - Contacto
El uso de este sitio está sujeto a la aceptación de los términos y condiciones (30 usuarios online)