tablaturas, partituras y acordes para guitarra
Busca por banda/artista:
 
y/o título de la canción:
A B C D E F G H I J K L M N O P Q R S T U V W X Y Z 0 1 2 3 4 5 6 7 8 9 / Top 100 tabs
Categorías
Usuarios
usuario:
Darse de alta
password:
Artistas más visitados
Publicidad
TOP acordes y tablaturas de Jack johnson


Good people
de Jack johnson
Puntúa este acorde/tab:      
(0.8/5)
Reportar este acorde/tab
  Añadir a tus favoritos
  Imprimir
Intro
e | --------------------------------------------------- | 
B | ----------------------------------9s10--9--7------- | 
G | --------9b11-9p7-----7-----------------------9----- | 
D | -------------------9---9------------------------9-- | 
A | --------------------------------------------------- | 
E | --7--7--------------------10--10------------------- | 

e | ------------------------------------------------------- | 
B | ------------------------------------------------------- | 
G | --------9b11-9p7-----7-----------11--11--9--11p9------- | 
D | -------------------9---9--------------------------11/-- | 
A | ------------------------------------------------------- | 
E | --7--7--------------------10--10----------------------- | 


B        E             C#m        F#
  You win it's your show now, So what's it going to be? 
B             E            C#m                     F#
  cause people will tune in, How many train wrecks do we need to see? 
B       E          C#m      F#
  Before we lose touch, And we thought this was low 
B           E              C#m  
  Well it's bad, getting worse.... 


F#                        B       E       C#m     
Where'd all the good people go? 
            F#                          B              E          C#m
I've been changing channels and I don't see them on the tv shows 
F#                        B       E       C#m
Where'd all the good people go?
            F#                B           E       C#m       F# 
We've got heaps and heaps of what we sow 


         B                  E
They got this and that with a rattle a tat 
    C#m               F#
Testing, one, two, man whatcha gonna do 
    B                  E
Bad news misused, got too much to lose 
  C#m                     F#
  Give me some truth now, who's side are we on 
    B           E            C#m                 F#
Whatever you say, Turn on the boob tube, I'm in the mood to obey 
    B           E            C#m
So lead me astray, And by the way now... 


F#                        B       E       C#m     
Where'd all the good people go? 
            F#                          B              E          C#m
I've been changing channels and I don't see them on the tv shows 
F#                        B       E       C#m
Where'd all the good people go?
            F#                B           E       C#m       F# 
We've got heaps and heaps of what we sow 


riff                           
e | ----------------------------------7----------------- | 
B | ----------------------------------7----10--7-------- | 
G | --------9b10-9p7--7-------------------------9------- | 
D | --------------------9—9----------------------------- | 
A | ---------------------------------------------------- | 
E | --7--7--------------------9—9----------------------- | 

e | ------------------------------------------------------------ | 
B | ------------------------------------------------------------ | 
G | --------9-9b10-r9p7-----7----------11-10—11-10—11-10—--9---- | 
D | -------------------9---------------------------------------- | 
A | ------------------------------------------------------------ | 
E | --7--7-------------------9--9------------------------------- | 

E                               B                      
    Sitting around feeling far away,   
C   C#                                  F#             F   
        So far away but I can feel the debris, can you feel it?
E                          B
    You interrupt me from a friendly conversation 
C   C#                                          F#          
        To tell me how great it's all going to be 
F    E                        B
        You     might     no-tice some hesitation 
C   C#                                           F#            
        It's important to you, it's not important to me 
F    E                         B
        But way down by the edge of yo--ur reason 
C   C#                                       E
        It's beginning to show,       and all I really want to know is... 


F#                        B       E       C#m     
Where'd all the good people go? 
            F#                          B              E          C#m
I've been changing channels and I don't see them on the tv shows 
F#                        B       E       C#m
Where'd all the good people go?
            F#                B           E       C#m       F# 
We've got heaps and heaps of what we sow                   (Where'd all the good people go?)


         B                  E
They got this and that with a rattle a tat 
    C#m               F#
Testing, one, two, man whatcha gonna do 
    B               E
Bad news misused, give me some truth
        C#m                     F#                    
You got too much to lose,  Whose side are we on

                           Where'd all the good people go?       
   B                   E
today anyway, Okay whatever you say
C#m                         F#   
Wrong and resolute but in the mood to obey
  B           E            C#m          F#
Station to station, desensitizing the nation

Where'd all the good people go?       
B
Going, going, gone 		   
AcordesyTabs.com © 2008 Acordes y Tablaturas para guitarra. Tabs and Chords for guitar. Aviso Legal - Contacto
El uso de este sitio está sujeto a la aceptación de los términos y condiciones (58 usuarios online)