tablaturas, partituras y acordes para guitarra
Busca por banda/artista:
 
y/o título de la canción:
A B C D E F G H I J K L M N O P Q R S T U V W X Y Z 0 1 2 3 4 5 6 7 8 9 / Top 100 tabs
Categorías
Usuarios
usuario:
Darse de alta
password:
Artistas más visitados
Publicidad
TOP acordes y tablaturas de Balamb


Estás en: Inicio > Letra B > Acordes y tablaturas de Balamb > The land godforsaken
The land godforsaken
de Balamb
Puntúa este acorde/tab:      
(0/5)
Reportar este acorde/tab
  Añadir a tus favoritos
  Imprimir
E|------------------------------------------------------------
B|------------------------------------------------------------
G|------------------------------------------------------------
D|-3-3---3--3-3---3--5-5---5--5-5---5--3-3---3----3-5---------
A|-1---1-------------3---3-------------1---1----3-1-3---------
E|----------1---1-------------3---3-------------1-------------

--------------------------------------------------------------
--------------------------------------------------------------
--------------------------------------------------------------
-7-7---7--7-7---7----5-5---5----5-7---------------------------
-5---5---------------3---3----5-3-5---------------------------
----------5---5---5-----------3-------------------------------

--------------------------------------------------------------
--------------------------------------------------------------
--------------------------------------------------------------
-3-3---3--3-3---3--5-5---5--5-5---5--3-3---3----3-5-----------
-1---1-------------3---3-------------1---1----3-1-3-----------
----------1---1-------------3---3-------------1---------------

--------------------------------------------------------------|
--------------------------------------------------------------|
--------------------------------------------------------------|
-7-7---7--7-7---7----5-5---5----5-7--3-----5--7---------------|
-5---5---------------3---3----5-3-5--1--3--3--5---------------|
----------5---5---5-----------3---------1---------------------|

E|------------------------------------------------------------
B|-5-------------------3---------0H1-0-1/---------------------
G|-----------5------------------------------------------------
D|----7---7-----7---7-----5---5-------------------------------
A|-7----7----7----7----5----5---------------------------------
E|------------------------------------------------------------

--------------------------------------------------------------|
-5-------------------3---------0H1-0-1/5----------------------|
-----------5--------------------------------------------------|
----7---7-----7---7-----5---5---------------------------------|
-7----7----7----7----5----5------------7----------------------|
--------------------------------------------------------------|

E|------------------------------------------------------------
B|------------------------------------------------------------
G|------------------------------------------------------------
D|-3---1----5---3----7---5-----5---3----3---1----5-3-5--------
A|---3--------5--------7---------5--------3-------------------
E|-1-----3--3-----5--5-----7---3-----5--1-----3--3-1-3--------

--------------------------------------------------------------| 
--------------------------------------------------------------|
--------------------------------------------------------------|
-7---5-----5---3----3---1----5-3-5-7--------------------------|
---7---------5--------3---------------------------------------|
-5-----7---3-----5--1-----3--3-1-3-5--------------------------|

--------------------------------------------------------------
--------------------------------------------------------------
-3-3---3-3-3---3-1---1---1---1---4-4---4--6-------------------
-1---1---1---1-----3-------3-----1---1----4-------------------
-----------------4-----4-4-----4------------------------------
--------------------------------------------------------------

--------------------------------------------------------------
--------------------------------------------------------------
-3-3---3-3-3---3-1---1---1---1---4-4---4--6-------------------
-1---1---1---1-----3-------3-----1---1----4-------------------
-----------------4-----4-4-----4------------------------------
--------------------------------------------------------------

--------------------------------------------------------------
--------------------------------------------------------------
-3-3---3-1-3---3-4-3---3/6-6---6------------------------------
-1---1-------1---1---1---4---4--------------------------------
---------4----------------------------------------------------
--------------------------------------------------------------

--------------------------------------------------------------
--------------------------------------------------------------
-3-3---3-1-3---3-4-3---3/6------------------------------------
-1---1-------1---1---1---4------------------------------------
---------4----------------------------------------------------
--------------------------------------------------------------

--------------------------------------------------------------
--------------------------------------------------------------
-3-3---3--6-5-6--3-3---3--5-4-5-------------------------------
-1---1----4-3-4--1---1----3-2-3-------------------------------
--------------------------------------------------------------
--------------------------------------------------------------

--------------------------------------------------------------|
--------------------------------------------------------------|
-3-3---3--6-5-6--3-3---3--5-4-5--3----------------------------|
-1---1----4-3-4--1---1----3-2-3--1----------------------------|
--------------------------------------------------------------|
--------------------------------------------------------------|

E|------------------------------------------------------------
B|------------------------------------------------------------
G|------------------------------------------------------------
D|-4-----4--6-----6--8-----8--6-----6-------------------------
A|---4--------6--------8--------6-----------------------------
E|-2---2----4---4----6---6----4---4---------------------------

--------------------------------------------------------------
--------------------------------------------------------------
--------------------------------------------------------------
-4-----4-2--6-----6-4--4-----4-2--6-----6-4-------------------
---4----------6----------4----------6-------------------------
-2---2---0--4---4---0--2---2---0--4---4---0-------------------

--------------------------------------------------------------
--------------------------------------------------------------
--------------------------------------------------------------
-4-----4--6-----6--8-----8--6-----6---------------------------
---4--------6--------8--------6-------------------------------
-2---2----4---4----6---6----4---4-----------------------------

--------------------------------------------------------------
--------------------------------------------------------------
--------------------------------------------------------------
-4-----4--6-----6--8-----8--6-----6---------------------------
---4--------6--------8--------6-------------------------------
-2---2----4---4----6---6----4---4-----------------------------

--------------------------------------------------------------|
--------------------------------------------------------------|
--------------------------------------------------------------|
-4-----4-2--6-----6-4--4-----4-2--6-----6-4-------------------|
---4----------6----------4----------6-------------------------|
-2---2---0--4---4---0--2---2---0--4---4---0-------------------|

E|------------------------------------------------------------
B|------------------------------------------------------------
G|------------------------------------------------------------
D|----------------------------0-0-0-0-0-0-0-0-0-0-0-0---------
A|-------------0-0-0-0-0-0-0-0-0-0-0-0-0-0--------0-0---------
E|-0-0-0-0-0-0-0-0-0-0-0--------------------------0-0---------

--------------------------------------------------------------
--------------------------------------------------------------
--------------------------------------------------------------
-----5-7-9-11-12------5-7-9-11-12------5-7-9-11-12------------
-0-0-0-0-0-0--0---0-0-0-0-0-0--0---0-0-0-0-0-0--0-------------
-0-0-0-0-0-0--0---0-0-0-0-0-0--0---0-0-0-0-0-0--0-------------

--------------------------------------------------------------|
--------------------------------------------------------------|
--------------------------------------------------------------|
------5-7-9-11-0-0-0------------------------------------------|
--0-0-0-0-0-0--0-0-0------------------------------------------|
--0-0-0-0-0-0--0-0-0------------------------------------------|

E|-----------1-3-1-------------3-5-3-------------5-7-5--------
B|-1-1-1-1-3-------3-3-3-3-3-5-------5-5-5-5-5-7-------7------
G|-0-----------------0-----------------0----------------------
D|------------------------------------------------------------
A|------------------------------------------------------------
E|------------------------------------------------------------

-----------7-9-7-------------1-3-1-------------3-5-3----------
-7-7-7-7-9-------9-1-1-1-1-3-------3-3-3-3-3-5-------5--------
-0-----------------0-----------------0------------------------
--------------------------------------------------------------
--------------------------------------------------------------
--------------------------------------------------------------

-----------5-7-5--------------7-9~----------------------------|
-5-5-5-5-7-------7--7-7-7-7-9---------------------------------|
-0------------------0-----------------------------------------|
--------------------------------------------------------------|
--------------------------------------------------------------|
--------------------------------------------------------------|

E|-----------------------------------------------------------
B|-----------------------------------------------------------
G|-----------------------------------------------------------
D|-0--------0--------0--------0------------------------------
A|-----0--------0--------0--------0--------------------------
E|---1---1----1---1----1---1----1---1------------------------

-------------------------------------------------------------
-------------------------------------------------------------
-------------------------------------------------------------
-0--------0--------0--------0--------------------------------
-----0--------0--------0--------0----------------------------
---2---2----2---2----2---2----2---2--------------------------

--------------------------------------------------------------
--------------------------------------------------------------
--------------------------------------------------------------
-0--------0--------0--------0---------------------------------
-----0--------0--------0--------0-----------------------------
---1---1----1---1----1---1----1---1---------------------------

--------------------------------------------------------------|
--------------------------------------------------------------|
--------------------------------------------------------------|
-0--------0--------0--------0-------0-------------------------|
-----0--------0--------0--------0-----------------------------|
---2---2----3---3----4---4----5---5-1-------------------------|

     AM        C        G        D
E|-0-----0--0-----0--3-----3--2-----2--0-----0--5-----0-------
B|---1--------1--------0--------3--------0--------0-----------
G|------------------------------------------------------------
D|------------------------------------------------------------
A|-0---0----3---3----2---2----0---0----0---0----0---0---------
E|------------------------------------------------------------

 AM        C        G        D
-0-----0--0-----0--3-----3--2-----2--0-----0--5---------------|
---1--------1--------0--------3--------0----------------------|
--------------------------------------------------------------|
--------------------------------------------------------------|
-0---0----3---3----2---2----0---0----0---0----0---------------|
--------------------------------------------------------------|		   
AcordesyTabs.com © 2008 Acordes y Tablaturas para guitarra. Tabs and Chords for guitar. Aviso Legal - Contacto
El uso de este sitio está sujeto a la aceptación de los términos y condiciones (34 usuarios online)