tablaturas, partituras y acordes para guitarra
Busca por banda/artista:
 
y/o título de la canción:
A B C D E F G H I J K L M N O P Q R S T U V W X Y Z 0 1 2 3 4 5 6 7 8 9 / Top 100 tabs
Categorías
Usuarios
usuario:
Darse de alta
password:
Artistas más visitados
Publicidad
TOP acordes y tablaturas de Guardian


Estás en: Inicio > Letra G > Acordes y tablaturas de Guardian > Nunca te diré adiós
Nunca te diré adiós
de Guardian
Puntúa este acorde/tab:      
(0.5/5)
Reportar este acorde/tab
  Añadir a tus favoritos
  Imprimir
G                 D
Sé que no ha sido fácil,
C                           G     C
Cuántas veces te he visto caer
G                       D
Mas en las lluvias o tormentas
C                     G    G
Mi amor por ti nunca cesó
 

D/F#    Em       D         C           G
Mas se pudieras ver Cuánto Yo te amo a ti.
  Em   D           C                  
Serias Libre, pues Yo te quiero así 
 
Ves pasar los dias, y los restos de Cada uno de esos sueños que Te mostré Mas toma lo restante Hay
                        C
sueños nuevos sólo para ti Ya no veas atrás mas 
            G   G 
sólo veme a Mí


D/F#    Em       D         C           G
Mas se pudieras ver Cuánto Yo te amo a ti.
  Em   D           C             D    
Serias Libre, pues Yo te quiero así
 

      G          D     C   
Y Yo nunca te diré adiós
      G          Am   D    
Pues tienes todo mi amor
        G           D              C         Em
Y de tu lado no me iré, Yo siempre te perdonaré


     Am          C     G    
Y Yo nunca te diré adiós
 

Am                                Em     Em  D/F#
Y Yo sé que el amor y la vida es fría
G                   D
Cuando todo lo ves gris
Am                          Em
Mas tu puedes darme a Mi tu carga 
D                   C
 Mi Hijo dí por ti
              G
Y Yo no te voy a abandonar, no, No!!

G
 | ------------------ | ------------------ | 
 | -------------3---- | ------------------ | 
 | -----4-5p4-------- | ------------------ | 
 | -5---------5------ | ------------------ | 
 | ------------------ | ------------------ | 
 | ------------------ | ------------------ | 

D
 | ---------2-------- | ------------------ | 
 | -------3---------- | -5-3--3h5p3------- | 
 | -----2------------ | ------------------ | 
 | ------------------ | ------------------ | 
 | ------------------ | ------------------ | 
 | ------------------ | ------------------ | 

C
 | ------------------ | ------------------ | 
 | ---------7h8p7---- | ------------------ | 
 | ---------------7-- | -----7------------ | 
 | ------------------ | -10----7-----5-7-- | 
 | ------------------ | ------------------ | 
 | ------------------ | ------------------ | 

G
 | ------------------ | ------------15-17- | 
 | ------------------ | ----------15------ | 
 | ------------------ | ------------------ | 
 | -7-------------- | ------------------ | 
 | ---------7------ | ------------------ | 
 | ---------------7-- | -7---------------- | 

G
 | -19------17------- | -15------12------- | 
 | ------------------ | ------------------ | 
 | ------------------ | ------------------ | 
 | ------------------ | ------------------ | 
 | ------------------ | ------------------ | 
 | ------------------ | ------------------ | 

D
 | -10------12------- | -10---------10-12- | 
 | ------------------ | ------------------ | 
 | ------------------ | ------------------ | 
 | ------------------ | ------------------ | 
 | ------------------ | ------------------ | 
 | ------------------ | ------------------ | 

C
 | -15------17------- | -12------12------- | 
 | ------------------ | ------------------ | 
 | ------------------ | ------------------ | 
 | ------------------ | ------------------ | 
 | ------------------ | ------------------ | 
 | ------------------ | ------------------ | 

G
 | -10--5--7--0---- | -3---------------- | 
 | ------------------ | ------------------ | 
 | ------------------ | ------------------ | 
 | ------------------ | ------------------ | 
 | ------------------ | ------------------ | 
 | ------------------ | ------------------ | 


D/F#    Em       D         C           G
Mas se pudieras ver Cuánto Yo te amo a ti.
  Em   D           C             D    
Serias Libre, pues Yo te quiero así
 

      G          D     C   
Y Yo nunca te diré adiós
      G          Am   D    
Pues tienes todo mi amor
        G           D              C         Em
Y de tu lado no me iré, Yo siempre te perdonaré
     Am          C     G    
Y Yo nunca te diré adiós
     Am          C    G F C 
Y Yo nunca te diré adiós
                 G F C 
nunca te diré adiós... 		   
AcordesyTabs.com © 2008 Acordes y Tablaturas para guitarra. Tabs and Chords for guitar. Aviso Legal - Contacto
El uso de este sitio está sujeto a la aceptación de los términos y condiciones (32 usuarios online)