tablaturas, partituras y acordes para guitarra
Busca por banda/artista:
 
y/o título de la canción:
A B C D E F G H I J K L M N O P Q R S T U V W X Y Z 0 1 2 3 4 5 6 7 8 9 / Top 100 tabs
Categorías
Usuarios
usuario:
Darse de alta
password:
Artistas más visitados
Publicidad
TOP acordes y tablaturas de Green day


Estás en: Inicio > Letra G > Acordes y tablaturas de Green day > Judges daughter
Judges daughter
de Green day
Puntúa este acorde/tab:      
(0.5/5)
Reportar este acorde/tab
  Añadir a tus favoritos
  Imprimir

Band: Green Day
Song: The Judges Daughter
Album: 1039 Smoothed Out Slappy Hours
Tabbed by simmo

This is a great old skool Green Day song which i've compiled from a couple of hundred tabs so this one is pretty damn exact! Enjoy!

Verse 1 
       G                  F               C                  G
|-------------------------------------------------------------------|
|-------------------------------------------------------------------|
|-----------------------------------5-5-5-5-5-5-5-5-----------------|
|-5-5-5-5-5-5-5-5--3-3-3-3-3-3-3-3--5-5-5-5-5-5-5-5--5-5-5-5-5-5-5-5|
|-5-5-5-5-5-5-5-5--3-3-3-3-3-3-3-3--3-3-3-3-3-3-3-3--5-5-5-5-5-5-5-5|
|-3-3-3-3-3-3-3-3--1-1-1-1-1-1-1-1-------------------3-3-3-3-3-3-3-3| 
Princess in a    schoolgirl's dream may I please speak with   you?
i'm having troubles with control and it's all because of        you
today i kept on    falling down i   thought it was the  street
so i look down at my  shoes they    were on the wrong  feet

chorus
         C              D           G   F   G
|-----------------------------------------------|
|-----------------------------------------------|
|-5-5-5-5-5-5-5-5-7-7-7-7-7-7-7-7---------------|
|-5-5-5-5-5-5-5-5-7-7-7-7-7-7-7-7-5-5-5-3-5-5-5-|
|-3-3-3-3-3-3-3-3-5-5-5-5-5-5-5-5-5-5-5-3-5-5-5-|
|---------------------------------3-3-3-1-3-3-3-|
i find it hard to be myself        (can you please explain?)
i do not think that it's my health (you're the one to blame)

        C   		    D
|-------------------------------------|
|-------------------------------------|
|-5-5-5-5-5-5-5-5-----7-7-7-7-7-7-7-7-|
|-5-5-5-5-5-5-5-5-----7-7-7-7-7-7-7-7-|
|-3-3-3-3-3-3-3-3-----5-5-5-5-5-5-5-5-|
|-------------------------------------|
you're the one i      wish i had 
and now my girlfriend's  getting mad

     G    F   G
|------------------|
|------------------|
|------------------|
|-5-5-5-5-3---5----|
|-5-5-5-5-3---5----|
|-3-3-3-3-1---3----|
(i cannot call this sane)
(i cannot call this sane)


Bridge 
        G                  F               C                  G
|-------------------------------------------------------------------|
|-------------------------------------------------------------------|
|-----------------------------------5-5-5-5-5-5-5-5-----------------|
|-5-5-5-5-5-5-5-5--3-3-3-3-3-3-3-3--5-5-5-5-5-5-5-5--5-5-5-5-5-5-5-5|
|-5-5-5-5-5-5-5-5--3-3-3-3-3-3-3-3--3-3-3-3-3-3-3-3--5-5-5-5-5-5-5-5|
|-3-3-3-3-3-3-3-3--1-1-1-1-1-1-1-1-------------------3-3-3-3-3-3-3-3|





Verse 2
       G                 F                 C                G
|-------------------------------------------------------------------|
|-------------------------------------------------------------------|
|-----------------------------------5-5-5-5-5-5-5-5-----------------|
|-5-5-5-5-5-5-5-5--3-3-3-3-3-3-3-3--5-5-5-5-5-5-5-5--5-5-5-5-5-5-5-5|
|-5-5-5-5-5-5-5-5--3-3-3-3-3-3-3-3--3-3-3-3-3-3-3-3--5-5-5-5-5-5-5-5|
|-3-3-3-3-3-3-3-3--1-1-1-1-1-1-1-1-------------------3-3-3-3-3-3-3-3|
today as i was      walking down    you bumped into    me
you said "excuse me"and walked away as  i dropped to my   knees
i prayed to the being in the sky that my  parents told me  of
i asked about you but no reply no   clues about your  love!



chorus
         C              D           G   F   G
|-----------------------------------------------|
|-----------------------------------------------|
|-5-5-5-5-5-5-5-5-7-7-7-7-7-7-7-7---------------|
|-5-5-5-5-5-5-5-5-7-7-7-7-7-7-7-7-5-5-5-3-5-5-5-|
|-3-3-3-3-3-3-3-3-5-5-5-5-5-5-5-5-5-5-5-3-5-5-5-|
|---------------------------------3-3-3-1-3-3-3-|
i find it hard to    be myself      (can you please explain?)
i do not think that  it's my health (you're the one to blame)

|-------------------------------------|
|-------------------------------------|
|-5-5-5-5-5-5-5-5-----7-7-7-7-7-7-7-7-|
|-5-5-5-5-5-5-5-5-----7-7-7-7-7-7-7-7-|
|-3-3-3-3-3-3-3-3-----5-5-5-5-5-5-5-5-|
|-------------------------------------|
my girlfriend left me on the phone 
i'm pathetically left here alone


|------------------|
|------------------|
|------------------|
|-5-5-5-5-3---5----|
|-5-5-5-5-3---5----|
|-3-3-3-3-1---3----|
(i cannot  call this sane)
(i cannot  call this sane)


bridge
|--------------|
|--------------|
|--------------|  x4
|-5-5-5-5-3-3-5|
|-5-5-5-5-3-3-5|
|-3-3-3-3-1-1-3|
                can we find a way 
                so that you can stay
                i think i'm gonna pop


SOLO: under G F C G - 4x

e-----3------3---------------------------------------------------------
B---3------3-----------------------------------------------------------
G-5^----5^------5-3--32---2h3--2------------------------3-0---3-5-3-5^
D------------------------3--------3--0--------3-5-5-5-5------5---------
A------------------------------------0--3-5-5--------------------------
E----------------------------------------------------------------------

e---3-3------3-3----3-6h3----------------------------------------------
B---3-3------3-3--3-------6-3-6^-6^-6-3--------------------------------
G-5------5^-----------------------------5^-5^h3--3-5~-5-3--5h3--3-----
D-----------------------------------------------------------------5-4-3
A---------------------------------------------------------------------
E---------------------------------------------------------------------

e--------------------------------------------------------------------
B------------------------15------15------15------15--15--------------
G-----------------17h15-----17^-----17^-----17^---------17^--17^--15~
D------------5-5-----------------------------------------------------
A-5-4--31^----------------------------------------------------------
E--------------------------------------------------------------------

e------------------------------15--------------15-16^---16^-----------
B---------------------------15-----18^----18^--------------------------
G-15-15--17h15------15--17^-----------------------------------3----5h3-
D--------------17-----------------------------------------------------5
A----------------------------------------------------------------------
E----------------------------------------------------------------------

e|-----------3-----------3---------------------------|
B|--------3----------3-------------------------------|
G|--3-5^---------5^----------5^--5^h3-----3----3--3--|
D|-------------------------------------5-------------|
A|---------------------------------------------------|
E|---------------------------------------------------|




chorus
         C              D           G   F   G
|-----------------------------------------------|
|-----------------------------------------------|
|-5-5-5-5-5-5-5-5-7-7-7-7-7-7-7-7---------------|
|-5-5-5-5-5-5-5-5-7-7-7-7-7-7-7-7-5-5-5-3-5-5-5-|
|-3-3-3-3-3-3-3-3-5-5-5-5-5-5-5-5-5-5-5-3-5-5-5-|
|---------------------------------3-3-3-1-3-3-3-|
i find it hard to    be myself      (can you please explain?)
i do not think that  it's my health (you're the one to blame)

|-------------------------------------|
|-------------------------------------|
|-5-5-5-5-5-5-5-5-----7-7-7-7-7-7-7-7-|
|-5-5-5-5-5-5-5-5-----7-7-7-7-7-7-7-7-|
|-3-3-3-3-3-3-3-3-----5-5-5-5-5-5-5-5-|
|-------------------------------------|
you're the one i      wish i had 
and now my girlfriend's  getting mad

|------------------|
|------------------|
|------------------|
|-5-5-5-5-3---5----|
|-5-5-5-5-3---5----|
|-3-3-3-3-1---3----|
(i cannot  call this sane)
(i cannot  call this sane)

 outro
|--------------|
|--------------|
|--------------|  x4
|-5-5-5-5-3-3-5|
|-5-5-5-5-3-3-5|
|-3-3-3-3-1-1-3|
                 can we find a way 
                 so that you can stay
                 i think i'm gonna pop



End!

lyrics

princess in a schoolgirl's dream may i please speak with you?
i'm having troubles with control and it's all because of you
today i kept on falling down i thought it was the street
so i look down at my shoes they were on the wrong feet
i find it hard to be myself (can you please explain?)
i do not think that it's my health (you're the one to blame)
you're the one i wish i had and now my girlfriend is getting mad
(i cannot call this sane)
today as i was walking down you bumped into me
you said "excuse me" and walked away as i dropped to my knees
i prayed to the being in the sky that my parents told me of
i asked about you but no reply no clues about your love!
my girlfriend left me on the phone i'm pathetically left here alone
(i cannot call this sane)
can we find a way so that you can stay i think i'm gonna pop


That's it! Comments, additions, requests, abuse or just intelligent conversation at simmotheaxman@hotmail.com





		   
AcordesyTabs.com © 2008 Acordes y Tablaturas para guitarra. Tabs and Chords for guitar. Aviso Legal - Contacto
El uso de este sitio está sujeto a la aceptación de los términos y condiciones (29 usuarios online)