tablaturas, partituras y acordes para guitarra
Busca por banda/artista:
 
y/o título de la canción:
A B C D E F G H I J K L M N O P Q R S T U V W X Y Z 0 1 2 3 4 5 6 7 8 9 / Top 100 tabs
Categorías
Usuarios
usuario:
Darse de alta
password:
Artistas más visitados
Publicidad
TOP acordes y tablaturas de Rush


Estás en: Inicio > Letra R > Acordes y tablaturas de Rush > Vapor trail
Vapor trail
de Rush
Puntúa este acorde/tab:      
(0.7/5)
Reportar este acorde/tab
  Añadir a tus favoritos
  Imprimir
Intro
w/phaser
||------------------||
||--5--5--5--5p3p0--||
||------------------||
||------------------||
||------------------||
||------------------||

Main Riff
  12 String Guitar
||----0-----2-|---0-----2-|---0-----2-|---0-----2-|---0-----2-|---0-----2-||
||------0-----|-----0-----|-----0-----|-----0-----|-----0-----|-----0-----||
||o-----------|-----------|-----------|-----------|-----------|-----------||
||o-----------|-----------|-0-----0---|-0-----0---|-0-----0---|-----------||
||--2-----2---|-2-----2---|-----------|-----------|-----------|-4-----4---||
||------------|-----------|-----------|-----------|-----------|-----------||

||-----0---2-|-----0---2--||
||---0-------|---0--------||
||-----------|-----------o||
||-----------|-----------o||
||-2-----2---|-0-----0----||
||-----------|------------||


Pre Chorus
||-------------------------------||
||-------------------------------||
||o-5-5-x-5-5-x-5-5-x-x-5-5-x-x-o||
||o-5-5-x-5-5-x-5-5-x-x-5-5-x-x-o||
||--3-3-x-3-3-x-3-3-x-x-3-3-x-x--||
||--3-3-x-3-3-x-3-3-x-x-3-3-x-x--||

Chorus
||--2-2-2-3-3-3-3-2-2-2-2-2-2-2-2-2--||
||--3-3-3-3-3-3-3-3-3-3-3-3-3-3-3-3--||
||o-2-2-2-2-2-2-2-2-2-2-2-2-2-2-2-2-o||
||o-0-0-0-0-0-0-0-0-0-0-0-0-0-0-0-0-o||
||-----------------------------------||
||-----------------------------------||

||-------------------------------||
||-------------------------------||
||o-5-5-x-5-5-x-5-5-x-x-5-5-x-x-o||
||o-5-5-x-5-5-x-5-5-x-x-5-5-x-x-o||
||--3-3-x-3-3-x-3-3-x-x-3-3-x-x--||
||--3-3-x-3-3-x-3-3-x-x-3-3-x-x--||

After 1st Chorus (over Verse riff}
N.H.---------------
||-------------------||
||-------------------||
||o-7-7-7-7-7-7-7-7-o||
||o-----------------o||
||-------------------||
||-------------------||


2nd Verse (Lead w/main riff)
||-----------------------------------------||
||--0-0-12p0-0-10p0-0-12p0-0-10p-0-0-12p0--||
||o---------------------------------------o||
||o---------------------------------------o||
||-----------------------------------------||
||-----------------------------------------||

Chorus - Same as Chorus 1


Pre Solo (w/verse riff)
(w/dist.)
||-------------------|-------------------------||
||-------------------|-------------------------||
||-------------------|-------------------------||
||-------------------|-------------------------||
||-2~~~~~~-0---------|---------5~~~~~~/9~~~~~~-||
||-----------3~~~~~~-|-0~~~~~~-----------------||
||
|| (w/dist.)
||-------------------|-------------------------||
||-------------------|-------------------------||
||-------------------|-------------------------||
||-------------------|-------------------------||
||-2~~~~~~-0---------|---------5~~~~~~~~~~~~-||
||-----------3~~~~~~-|-0~~~~~~-----------------||

Solo
(Volume swells throughout)
||---------------|------------------|-----------------|------------------||
||---------------|-12~~~~-10~~~~-12-|----------12~~~~-|--------------15--||
||--7~~~~/11~~~~-|------------------|-11~~~~----------|-7~~~~/11~~~~(11)-||
||---------------|------------------|-----------------|------------------||
||---------------|------------------|-----------------|------------------||
||---------------|------------------|-----------------|------------------||

(these are 14's, 15's and 10's)
||-14-1414-1414-1414-1414141414-|------------------------------||
||------------------------------|-15-1515-1515-1515-1515151515-||
||------------------------------|------------------------------||
||------------------------------|------------------------------||
||------------------------------|------------------------------||
||------------------------------|------------------------------||

||------------------------------|------------------------------||
||-10-1010-1010-1010-1010101010-|-10-1010-1010-1010-1010101010-||
||------------------------------|------------------------------||
||------------------------------|------------------------------||
||------------------------------|------------------------------||
||------------------------------|------------------------------||

Play w/pre solo after 3rd Chorus
(backwards guitar)
||--12~~~~~~~~~~~--12--10p8p7-8-7~~~~--|-----------------|------------------||
||---------------------------------------|-----------------|------------------||
||---------------------------------------|--109-----------|------------------||
||---------------------------------------|--------9/10~~~--|--9---9---9---9---||
||---------------------------------------|-----------------|------------------||
||---------------------------------------|-----------------|------------------||

Outro:
Play around with Pre-Solo riff

||-------------------|-------------------------||
||-------------------|-------------------------||
||-------------------|-------------------------||
||-------------------|-------------------------||
||-2~~~~~~-0---------|---------5~~~~~~/9~~~~~~-||
||-----------3~~~~~~-|-0~~~~~~-----------------||

||-------------------|-------------------------||
||-------------------|-------------------------||
||-------------------|-------------------------||
||-------------------|-4~~~~~~-----------------||
||-2~~~~~~~~---------|-------------------------||
||-----------3~~~~~~-|---------5~~~~~~~~~~~~~--||

||-------------------|-------------------------||
||-------------------|-------------------------||
||-------------------|-------------------------||
||-------------------|-------------------------||
||-2~~~~~~-0---------|---------5~~~~~~/9~~~~~~-||
||-----------3~~~2~~-|-0~~~~~~-----------------||

||-------------------|-------------------------||
||-------------------|-------------------------||
||-------------------|-------------------------||
||-------------------|-------------------------||
||-2~~~~~~-5~~~~~~~~-|-9~~~~~~~~~~12~~~~~~~~~~-||
||-------------------|-------------------------||

There are like a million variations on this, just end on a Bm

-------------------
| Tab Explanation |
-------------------

||
||
||
|| = barline to begin/end a tab line
||
||


|
|
|
| = barline in middle of tab line
|
|

||                    ||
||                    ||
||o                  o||
||o = repeat marks   o||
||                    ||
||                    ||


~ = vibrato
/ = slide
p = pull-off
h = hammer on
x = left hand mute
N.H. = natural harmonics
(n) = ghost note. also used when a note is tied from the previous note.		   
AcordesyTabs.com © 2008 Acordes y Tablaturas para guitarra. Tabs and Chords for guitar. Aviso Legal - Contacto
El uso de este sitio está sujeto a la aceptación de los términos y condiciones (29 usuarios online)