tablaturas, partituras y acordes para guitarra
Busca por banda/artista:
 
y/o título de la canción:
A B C D E F G H I J K L M N O P Q R S T U V W X Y Z 0 1 2 3 4 5 6 7 8 9 / Top 100 tabs
Categorías
Usuarios
usuario:
Darse de alta
password:
Artistas más visitados
Publicidad
TOP acordes y tablaturas de Angra


Estás en: Inicio > Letra A > Acordes y tablaturas de Angra > Paradise
Paradise
de Angra
Puntúa este acorde/tab:      
(0.2/5)
Reportar este acorde/tab
  Añadir a tus favoritos
  Imprimir
G|---------------------------|
D|---------------------------|
A|-0-2-0-2-0-2-0-2-----------|
E|------------------2--2-----|


G|----------------------|
D|----------------------|
A|-2--0-----0--2--0-----|
E|-------2--------------|

Verse Rhythm
G|-----------------------------------------------|
D|-------------2--2-4-2-4--0----------0----------|
A|-0--0-4-4-4---------------------0-2-------0-2--|
E|----------------------------0-2-------0-2------|

G|-------------------2-----------------------------|
D|------------2-2-2----4--2--0---------0-----------|
A|-0--0-4-4-4----------------------0-2-------0-2---|
E|-----------------------------0-2-------0-2-------|

G|---------------------------------------------------|
D|-------------------4-2-----------------------------|
A|------0-0-0--4--4------4--2-0---0-2-2-0--4-2-0-----|
E|-2--2-------------------------2--------------------|

G|--------------------------------------------------|
D|-------------------4-2----------------------------|
A|-------0-0-0-4-4-4-----4--2-0---0-2-4-4-4-4-4-4---|
E|-2-2-2------------------------2-------------------|

G|-----------------------------------------------|
D|-------------2--2-4-2-4--0----------0----------|
A|-0--0-4-4-4---------------------0-2-------0-2--|
E|----------------------------0-2-------0-2------|

G|-------------------2-----------------------------|
D|------------2-2-2----4--2--0---------0-----------|
A|-0--0-4-4-4----------------------0-2-------0-2---|
E|-----------------------------0-2-------0-2-------|

G|---------------------------------------------------|
D|-------------------4-2-----------------------------|
A|------0-0-0--4--4------4--2-0---0-2-2-0--4-2-0-----|
E|-2--2-------------------------2--------------------|


G|------------------------------------------------|
D|-------------------4-2--------------------------|
A|-------0-0-0-4-4-4-----4---2--0-----0--2--0-----|
E|-2-2-2---------------------------2--------------|


G|-----------------------------------------------------------|
D|-----------------------------------------------------------|
A|-------------2-2-2-2------------------2-2-2-2-------------------|
E|-0-0-0-0-0-0-------------0-0-0-0-0-0------------0-0-0-0-0-0-------|

G|-----------------------------------------------------------|
D|-----------------------------------------------------------|
A|-2-2-2-2-2-2-----------------------------------------------------|
E|-------------0-0-0-0-0-0--0---------------------------------------|
To Quiet Part


Pick-ups        repeat as needed
G|--------|------------------------------|
D|-2------|--0-----0-----2-----2---------|
A|--------|------------------------------|
E|---3-3--|----3-3---3-3---3-3---3-3-----|


G|--------------------------------------|
D|--------0-----0-----2-----------------|
A|--------------------------------------|
E|----------3-3---3-3---3-3-------2-----|

Back to Verse Rhythm

Quiet Part                                          Mostly used
G|--------------------|---------------------|--------------------|
D|--------------------|---------------------|--------------------|
A|----------2-2-2--2--|---------2-2-2-2-----|--------2-2-2-2-2-2-|
E|--0--0-0------------|--0--0-0---------0/--|-0--0-0-------------|

   used once
G|-----------------------------------------------------------|
D|-------------0-0h2-0----------------------------------------------|
A|---------2-2----------------------------------------------------|
E|-0--0-0--------------------0-0-0-0--0--0--0---------------------------|

Pick-ups        repeat as needed
G|--------|------------------------------|
D|-2------|--0-----0-----2-----2---------|
A|--------|------------------------------|
E|---3-3--|----3-3---3-3---3-3---3-3-----|

G|------------------------------------------------------------|
D|--------0-----0-----2---------------------------------------|
A|------------------------------------------------------------|
E|----------3-3---3-3---3-3----3/8--3/8--3/8--3/8-----2-------|

G|---------------------------|
D|---------------------------|
A|-0-2-0-2-0-2-0-2-----------|
E|------------------2--2-----|		   
AcordesyTabs.com © 2008 Acordes y Tablaturas para guitarra. Tabs and Chords for guitar. Aviso Legal - Contacto
El uso de este sitio está sujeto a la aceptación de los términos y condiciones (32 usuarios online)