tablaturas, partituras y acordes para guitarra
Busca por banda/artista:
 
y/o título de la canción:
A B C D E F G H I J K L M N O P Q R S T U V W X Y Z 0 1 2 3 4 5 6 7 8 9 / Top 100 tabs
Categorías
Usuarios
usuario:
Darse de alta
password:
Artistas más visitados
Publicidad
TOP acordes y tablaturas de Taking back sunday


Estás en: Inicio > Letra T > Acordes y tablaturas de Taking back sunday > This photography is the proff
This photography is the proff
de Taking back sunday
Puntúa este acorde/tab:      
(0.3/5)
Reportar este acorde/tab
  Añadir a tus favoritos
  Imprimir
INTRODUÇÃO:

1ª parte.

|-----------------|----------------
|-----7 ----------|------5---------
|-----------(3X)--|-----------(3X)- REPETE 2X  CADA
|-----0-----------|-----0----------
|-----------------|----------------
|-----------------|----------------

2ª parte

|--------------|---------------
|----2---------|---3-----------
|--------(3X)--|-----------(3X)      2X CADA
|----4---------|---4-----------
|--------------|---------------
|--------------|---------------

PRE- REFRÃO.

|-----------------------------------------------
|------5-----5- /7---7------7--/5------5------5-
|-----------------------------------------------
|--7-----7--------------7-----------7------7----
|-----------------------------------------------
|-----------------------------------------------

|----------------------------------------
|-----2-----2- /3----3- /2------2-----2--
|----------------------------------------
|--4----4---------4---------4-----4------
|----------------------------------------
|----------------------------------------

|------------
|------------
|------------
|----5-------       VARIAS VEZES ATE O REFRÃO
|----5-------
|----3-------

REFRÃO:

|------------------------------------
|------------------------------------
|----7-------------------------------
|----7----------------9-----------10-
|---5-----------------9-----------10-
|--------------------7-----------8---

REPETE  INTRODUÇÃO + 1 VEZ
REPETE O PRE REFRÃO +  VEZ



REPETE O REFRÃO SO Q DIFERENTE:

REFRÃO:

|---------------------------------------------------
|---------------------------------------------------
|----7----------------------------------------------
|----7----------------9-----------10-----------(9)--
|----5----------------9-----------10-----------(9)--
|---------------------7-----------8------------(7)--

SOLO:

|-------------------------                  |----------
|-------------------------                  |----------
|--12----11----9-----7----                  |----------
|-------------------------  4X  E NO FINAL  |------5---
|--10----9-----7-----5----                  |------5---
|-------------------------                  |------3---


REPETE REFRÃO ATE O FINAL.		   
AcordesyTabs.com © 2008 Acordes y Tablaturas para guitarra. Tabs and Chords for guitar. Aviso Legal - Contacto
El uso de este sitio está sujeto a la aceptación de los términos y condiciones (20 usuarios online)