tablaturas, partituras y acordes para guitarra
Busca por banda/artista:
 
y/o título de la canción:
A B C D E F G H I J K L M N O P Q R S T U V W X Y Z 0 1 2 3 4 5 6 7 8 9 / Top 100 tabs
Categorías
Usuarios
usuario:
Darse de alta
password:
Artistas más visitados
Publicidad
TOP acordes y tablaturas de Queens of the stone age


Estás en: Inicio > Letra Q > Acordes y tablaturas de Queens of the stone age > The lost art of keeping a secret
The lost art of keeping a secret
de Queens of the stone age
Puntúa este acorde/tab:      
(0.8/5)
Reportar este acorde/tab
  Añadir a tus favoritos
  Imprimir
Verse /intro
G|----------------------------------------------3h5--|
D|--------------------------5--5--5--5--5--5--5------|
A|-3--3--3--3--3--3--3-1h3---------------------------|
E|---------------------------------------------------|

G|---------------------3h5------------------------|
D|-4--4--4--4--4--4--4-----3--3--3--3--3--1--0----|
A|---------------------------------------------1--| 
E|------------------------------------------------|

G|----------------------------------------------3h5--|
D|--------------------------5--5--5--5--5--5--5------|
A|-3--3--3--3--3--3--3-1h3---------------------------|
E|---------------------------------------------------|

G|---------------------3h5------------------------|
D|-4--4--4--4--4--4--4-----3--3--3--3--3--1--0----|
A|---------------------------------------------1--| 
E|------------------------------------------------|


G|----------------------------------------------3h5--|
D|--------------------------5--5--5--5--5--5--5------|
A|-3--3--3--3--3--3--3-1h3---------------------------|
E|---------------------------------------------------|

G|--------------------3-5--------------------------|
D|-4--4--4--4--4--4--4-4---3--3--3--3--3--1--0-----|
A|----------------------------------------------1--| 
E|-------------------------------------------------|

G|----------------------------------------------3-5--|
D|--------------------------5--5--5--5--5--5--5--5---|
A|-3--3--3--3--3--3--3-1h3---------------------------|
E|---------------------------------------------------|

G|---------------------3h5-----------------8----------|
D|-4--4--4--4--4--4--4-----3--3--3--3--6h8---8p6------|
A|-----------------------------------------------8p6--| 
E|----------------------------------------------------|

G|----------------------------------------------3h5--|
D|--------------------------5--5--5--5--5--5--5------|
A|-3--3--3--3--3--3--3-1h3---------------------------|
E|---------------------------------------------------|

G|---------------------3h5------------------------|
D|-4--4--4--4--4--4--4-----3--3--3--3--3--1--0----|
A|---------------------------------------------1--| 
E|------------------------------------------------|

Chorus 1
G|-------------------------------------------------|
D|-------------------------------------------------|
A|-3--3--3--3--3--3--3--3--------------------------|
E|-------------------------3--3--3--3--3--3--3--3--|

G|-------------------------------------------------|
D|-------------------------------------------------|
A|--------------------------6-6-6-6-6--------------| x2
E|-2--2--2--2--2--2--2--2-----------------1--1--1--|

Verse  

Chorus 1 riff x2

Chorus 2
G|-------------------------------------------------|
D|-------------------------------------------------|
A|-3--3--3--3--3--3--3--3--------------------------|
E|-------------------------2--2--2--2--2--2--2--2--|

G|-------------------------------------------------|
D|-------------------------------------------------|
A|-6--6--6--6--6--6--6--6---5-5-5-5-5-----4--4--4--| x1
E|-------------------------------------------------|

Chorus 1 riff x1

Bridge
G|-------------------------------------------------|
D|-------------------------------------------------|
A|-------------------------------------------------|
E|-2--2--2--2--2--2--2--2--2--2--2--2--2--2--2--2--|

G|-------------------------------------------------|
D|-------------------------------------------------|
A|-------------------------------------------------|
E|-4--4--4--4--4--4--4--4--4--4--4--4--4--4--4--4--|

G|----------------------1/5-3h5-3h5-3h5-3h5-3h5-3h5--|
D|---------------------------------------------------|
A|-3--3--3--3--3--3--3-------------------------------|
E|---------------------------------------------------|

G|-------------------------------------------------|
D|-------------------------------------------------|
A|-------------------------------------------------|
E|-2--2--2--2--2--2--2--2--2--2--2--2--2--2--2--2--|

G|-------------------------------------------------|
D|-------------------------------------------------|
A|-------------------------------------------------|
E|-4--4--4--4--4--4--4--4--4--4--4--4--4--4--4--4--|

Verse 2
G|----------------------------------------------3-5--|
D|--------------------------5--5--5--5--5--5--5--5---|
A|-3--3--3--3--3--3--3-1h3---------------------------|
E|---------------------------------------------------|

G|--------------------3-5--------------------------|
D|-4--4--4--4--4--4--4-4---3--3--3--3--3--1--0-----|
A|----------------------------------------------1--| 
E|-------------------------------------------------|

G|----------------------------------------------3-5--|
D|--------------------------5--5--5--5--5--5--5--5---|
A|-3--3--3--3--3--3--3-1h3---------------------------|
E|---------------------------------------------------|

G|--------------------3-5-8-----------------88------|
D|-4--4--4--4--4--4--4-4-4--3--3--3--3--6h8---86----|
A|----------------------------------------------/8--| 
E|--------------------------------------------------|


Chorus x2
Chorus 2 x2



Outro
G|---------------------|
D|---------------------|
A|-----3/-----6--------| x4
E|-8-------------1--3--|		   
AcordesyTabs.com © 2008 Acordes y Tablaturas para guitarra. Tabs and Chords for guitar. Aviso Legal - Contacto
El uso de este sitio está sujeto a la aceptación de los términos y condiciones (15 usuarios online)