tablaturas, partituras y acordes para guitarra
Busca por banda/artista:
 
y/o título de la canción:
A B C D E F G H I J K L M N O P Q R S T U V W X Y Z 0 1 2 3 4 5 6 7 8 9 / Top 100 tabs
Categorías
Usuarios
usuario:
Darse de alta
password:
Artistas más visitados
Publicidad
TOP acordes y tablaturas de Manu chao


Estás en: Inicio > Letra M > Acordes y tablaturas de Manu chao > Rumba de barcelona
Rumba de barcelona
de Manu chao
Puntúa este acorde/tab:      
(0.3/5)
Reportar este acorde/tab
  Añadir a tus favoritos
  Imprimir
Tambien puedes tocar estos punteos que te pongo, que
en el concierto se oyen con la trompeta magica de Roy 
Paci y el Trombón de Gianny Salazar Camacho

(son los que van antes de que empieza a cantar):

  Bm           A
 | --8--8-8-8-8--4--8-7-7--4 | 
 | ------------------------- | 
 | ------------------------- | 
 | ------------------------- | 
 | ------------------------- | 
 | ------------------------- | 
  F#          Bm
 | --7--7-7-7-7--5--7-8-8--5 | 
 | ------------------------- | 
 | ------------------------- | 
 | ------------------------- | 
 | ------------------------- | 
 | ------------------------- | 

  Bm           A
 | --8--8-8-8-8--4--8-7-7--4 | 
 | ------------------------- | 
 | ------------------------- | 
 | ------------------------- | 
 | ------------------------- | 
 | ------------------------- | 
  F#        Bm
 | --7--5-7-8--7-5- | 
 | ---------------- | 
 | ---------------- | 
 | ---------------- | 
 | ---------------- | 
 | ---------------- | 

y Empieza:

Bm            A
Rambla pa'qui Rambla pa'lla
F#           Bm
Esa la Rumba de Barcelona


Bm            A
Rambla pa'qui Rambla pa'lla
F#           Bm
Esa la Rumba de Barcelona


Bm       A
Te mercé Bibi Malena
F#       Bm
Te mercé perro chaval
Bm       A
Te mercé la policia
F#       Bm
Te mercé Abdu Lila


Bm            A
Rambla pa'qui Rambla pa'lla
F#           Bm
Esa la Rumba de Barcelona


Bm            A
Rambla pa'qui Rambla pa'lla
F#           Bm
Esa la Rumba de Barcelona


Bm       A 
Te mercé Mademoiselle
F#          Bm
Mademoiselle d'Avignon
Bm       A
Te mercé o Bixo Bahía 
F#       Bm
Te mercé Escudellers 		   
AcordesyTabs.com © 2008 Acordes y Tablaturas para guitarra. Tabs and Chords for guitar. Aviso Legal - Contacto
El uso de este sitio está sujeto a la aceptación de los términos y condiciones (27 usuarios online)