tablaturas, partituras y acordes para guitarra
Busca por banda/artista:
 
y/o título de la canción:
A B C D E F G H I J K L M N O P Q R S T U V W X Y Z 0 1 2 3 4 5 6 7 8 9 / Top 100 tabs
Categorías
Usuarios
usuario:
Darse de alta
password:
Artistas más visitados
Publicidad
TOP acordes y tablaturas de The donnas


Take it off
de The donnas
Puntúa este acorde/tab:      
(0.7/5)
Reportar este acorde/tab
  Añadir a tus favoritos
  Imprimir
Intro Riff                                          
--------------------------|--------------------------|
--------------------------|--------------------------|
--------------------------|--------------------------|
--7--7--7--7--7--7--7--7--|--7--7--7--7--7--7--7--7--|

--------------------------|--------------------------|
--------------------------|--------------------------|
--------------------------|--------------------------|
--7--7--7--7--7--7--7--7--|--7--7--7--7--7--7--7--7--|


Main Riff
--------------------------|--------------------------|
--------------------------|--------------------------|
--------------------------|--------------------------|
--7--7--7--7--7--7--7--7--|--7--7--7--7--7--7--7--7--|

--------------------------|--------------------------| 
--------------------------|--------------------------|
--------------------------|--------------------------|
--7--7--7--7--7--7--7--3--|--3--3--3--5--5--5--5--5--|


Pre Chorus Riff
--------------------------|--------------------------|
--------------------------|--------------------------|
--------------------------|--------------------------|
--2--2--2--2--2--2--2--2--|--2--2--2--2--2--2--2--2--|


Chorus Riff 
--------------------------|--------------------------|
--------------------------|--------------------------|
-----------------------5--|-(5)----------------------|
--7--7--7--7--7--7--7-----|-----5--5--5--5--5--5--5--|

--------------------------|--------------------------|
--------------------------|--------------------------|
--------------------------|--------------------------|
--0--0--0--0--0--0--0--3--|--3--3--3--5--5--5--5--5--|


Guitar Solo
--------------------------|--------------------------|
--------------------------|--------------------------|
--------------------------|--5--5--5--5--5--5--5--5--|
--7--7--7--7--7--7--7--7--|--------------------------|

--------------------------|--------------------------|
--------------------------|--------------------------|
--------------------------|--5--5--5--5--------------|
--7--7--7--7--7--7--7--7--|--------------5--5--5--5--|


Interlude
--------------------------|--------------------------|
--------------------------|--------------------------|
--------------------------|--------------------------|
--3--3--3--3--3--3--3--3--|--5--5--5--5--5--5--5--5--|

--------------------------|--------------------------| 
--------------------------|--------------------------| 
--------------------------|--------------------------| 
--7--7--7--7--7--7--7--7--|--7--7--7--7--7--7--7--7--|


Bass Fill 1
--------------------------|--------------------------|
--------------------------|--------------------------|
--------r--------r--------|--r--------r--------------|
--2--2-----2--2-----2--2--|-----2--2-----2----2------|

Bass Fill 2
--------------------------|--------------------------|
--------------------------|--------------------------|
--------------------------|--------------------------|
--0--0--0--0--0--0--0--3--|-(3)-0--3--5--5--5--5--5--|

Bass Fill 3
--------------------------|--------------------------|
--------------------------|--------------------------|
--------------------------|--------------------------|
--0--0--0--0--0--0--0--3--|-(3)---3--------5---------|



Order:

Enter at 0:12
  
Intro Riff       x 1
Main Riff        x 3
Pre Chorus Riff  x 1
Chorus Riff      x 2
Main Riff        x 3
Pre Chorus Riff  x 1
Chorus Riff      x 2
Pre Chorus       x 1
Guitar Solo      x 2
Interlude        x 3

(3rd Time play 1st 2 bars then Bass Fill 1)

Chorus Riff      x 4

(3rd Time play 1st 2 bars then Bass Fill 2)
(4th time play 1st 2 bars then Bass Fill 3)		   
AcordesyTabs.com © 2008 Acordes y Tablaturas para guitarra. Tabs and Chords for guitar. Aviso Legal - Contacto
El uso de este sitio está sujeto a la aceptación de los términos y condiciones (44 usuarios online)