tablaturas, partituras y acordes para guitarra
Busca por banda/artista:
 
y/o título de la canción:
A B C D E F G H I J K L M N O P Q R S T U V W X Y Z 0 1 2 3 4 5 6 7 8 9 / Top 100 tabs
Categorías
Usuarios
usuario:
Darse de alta
password:
Artistas más visitados
Publicidad
TOP acordes y tablaturas de Tercer mundo


Estás en: Inicio > Letra T > Acordes y tablaturas de Tercer mundo > No te vayas hoy
No te vayas hoy
de Tercer mundo
Puntúa este acorde/tab:      
(0.5/5)
Reportar este acorde/tab
  Añadir a tus favoritos
  Imprimir
Intro: 
La introducción es tocada en un sintetizador, y por ésto me salto
directo al verso.

Verse:
D           A                        G       Bm      A
No te vayas hoy si lo que nos tiene vivos es la tradición
D           A                      G       Bm          A
no te vayas hoy sin saber lo que pienso yo, lo que quiero de ti
D           A                        G           Bm      A 
No te vayas hoy, si no has visto que alguna luz, me enciendías
D           A                        G         A                        A////
no te vayas hoy si porque te dije te quiero, crees que te quiero en verdad

Interlude: 
G D Bm   G D A   A A A A

Luego toca esto:
      D              A              G                      Bm   A
e)  | ------------5----14-12-10----------------------9-10-----10--15-14-10-10-- | 
b)  | --7/5---7-8-----------------10p12-10--8----12---------10----------------- | 
g)  | ------7---------------------------------11------------------------------- | 
d)  | ------------------------------------------------------------------------- | 
a)  | ------------------------------------------------------------------------- | 
e)  | ------------------------------------------------------------------------- | 

Verse 2:
D           A                            G         Bm      A 
No te vayas hoy si lo que nos llega a hacer callar  es una vida
D           A                            G         Bm       A 
No te vayas hoy si lo que nos llega a hacer llorar  es un silencio mas
D           A                         G          Bm            A
No te vayas hoy, si sólo existes como alguien más del mundo afuera
D           A                           G          Bm          A
no te vayas hoy, hay tanta gente en las calles que no te miran como yo


D           A     Bm           G
No te vayas hoy,   no te vayas hoy,
D            A                Bm       G
no quiero sentir que la vida pasa y tú  nada has cambiado.

Chorus:
Bm           A                 E     E F#m
Mírame a los ojos, mírame por dentro
Bm           A                       E     E F#m 
démonos más tiempo que una noche en vela
D      A         C          G               A
no te vayas hoy,  sin que sientas que hay amor

Luego viene el solo de guitarra, que por el momento no lo he sacado, pero

aquí están los acordes que lo acompañan:
D  A  G  Bm  A  
(se toca 4 veces)

Chorus:
Bm           A                 E     E F#m
Mírame a los ojos, mírame por dentro
Bm           A                       E     E F#m 
démonos más tiempo que una noche en vela
D      A         C          G               A
no te vayas hoy,  sin que sientas que hay amor

           Em2 Em  Em2 Em  Em2 Em  Em2 Em     A
e)  | --------------------------------------------------------------- | 
b)  | -------7-7-5---7-7-5---7-7-5---7-7-5------5p7p5p7p5p7p5p7p5---- | 
g)  | --------------------------------------------------------------- | 
d)  | --------------------------------------------------------------- | 
a)  | --------------------------------------------------------------- | 
e)  | --------------------------------------------------------------- | 
     y te seduciré,

           Em2 Em  Em2 Em  Em2 Em  Em2 Em     A
e)  | --------------------------------------------------------------- | 
b)  | -------7-7-5---7-7-5---7-7-5---7-7-5------5p7p5p7p5p7p5p7p5---- | 
g)  | --------------------------------------------------------------- | 
d)  | --------------------------------------------------------------- | 
a)  | --------------------------------------------------------------- | 
e)  | --------------------------------------------------------------- | 
    y me enamoraré...

                   Otra vez.

D A G Bm A (se toca varias veces y finaliza con D)

Y esa es toda la canción!

Acordes usados:
      D  A  G  Bm  E  Em  Em2  C
e)  | --2--0--3---2--0---0---0---0--- | 
b)  | --3--2--3---3--0---0---0---1--- | 
g)  | --2--2--0---4--1---0---0---0--- | 
d)  | --0--2--0---4--2---2---4---2--- | 
a)  | --0--0--2---2--2---2---2---3--- | 
e)  | --x--0--3---2--0---0---0---0--- |  		   
AcordesyTabs.com © 2008 Acordes y Tablaturas para guitarra. Tabs and Chords for guitar. Aviso Legal - Contacto
El uso de este sitio está sujeto a la aceptación de los términos y condiciones (14 usuarios online)