tablaturas, partituras y acordes para guitarra
Busca por banda/artista:
 
y/o título de la canción:
A B C D E F G H I J K L M N O P Q R S T U V W X Y Z 0 1 2 3 4 5 6 7 8 9 / Top 100 tabs
Categorías
Usuarios
usuario:
Darse de alta
password:
Artistas más visitados
Publicidad
TOP acordes y tablaturas de Tercer mundo


Estás en: Inicio > Letra T > Acordes y tablaturas de Tercer mundo > Por las calles
Por las calles
de Tercer mundo
Puntúa este acorde/tab:      
(0.3/5)
Reportar este acorde/tab
  Añadir a tus favoritos
  Imprimir
Intro: 
Esta parte se toca con un sintetizador, si escuchas con cuidado
hay una guitarra que toca el siguiente riff:
e)  | -------------------------------------5-5----------4-4-6-- | 
b)  | ---6--5-----------5----6--8-8-8-8--------6-6--5-5-------- | 
g)  | --------5-4---5-7---------------------------------------- | Este riff 
d)  | --------------------------------------------------------- | se toca 
a)  | --------------------------------------------------------- |  2 veces
e)  | --------------------------------------------------------- | 

Verse:
D                     Gm        Am    Gm
Ella caminaba por las calles de la ciudad
Em                    F#m
ella no pensaba en el tiempo
       Em                  E7
que gastaba dibujando sus sueños indecentes


D                         Gm          Am   Gm
Ella tiene miedo de estar sola en la eternidad
Em                       F#m
quien no te enseñó a conocerte
Em                            E7                        Am
quien no te enseñó que no hay forma de esconderse del latido de tu corazón


F#m                                                   Em
Son como las 3 sin ti que voy a hacer mi vida se acabará
F#m
Yo te cuidaré por siempre te querré
                    Em
se fue y no regresó mas


Interlude 1:
      Bm        A         G
e)  | ---------------------------------- | 
b)  | ---------------------------------- | 
g)  | ---------------4-4---------------- | 
d)  | --9--7-7-9--7--4-4-7--5--4-4-5---- | 
a)  | --9--7-7-9--7--2-2-7--5--4-4-5---- | 
e)  | --7--5-5-7--5------5--3--2-2-3---- | 


F#m
No hay nada que hacer, el tiempo echó a correr
                 Em
ya nadie te detendrá
   F#m
No vuelvas otra vez, no sigas a tus pies
                  Em
tu luz no se apagará


Interlude 2:
     Bm        A          G        A
e)  | ------------------------------------------ | 
b)  | ------------------------------------------ | 
g)  | ---------------4-4------------------------ | 
d)  | --9--7-7-9--7--4-4-7--5--4-4-5-7--4-4-7--- | 
a)  | --9--7-7-9--7--2-2-7--5--4-4-5-7--4-4-7--- | 
e)  | --7--5-5-7--5------5--3--2-2-3-5--2-2-5--- | 

      Bm        A         G   A  G  A  G G
e)  | ------------------------------------------ | 
b)  | ------------------------------------------ | 
g)  | ---------------4-4------------------------ | 
d)  | --9--7-7-9--7--4-4-7--5---7--5--7--5-5---- | 
a)  | --9--7-7-9--7--2-2-7--5---5--5--7--5-5---- | 
e)  | --7--5-5-7--5------5--3---5--3--5--3-3---- | 

C#m*              A#m*  C#m                     A#m
Prende la televisión    quiere ver alguna de acción
Bm*                 E*                 Cm*             F*
ella ya no quiere novelas desde que un tipo rompió esa flor en primavera
C#m*              A#m*       C#m*                  A#m*
cambia esa cara mamá    el Felipe ya me viene a buscar
       Bm*                    E*
no te asustes si no vuelvo temprano 
          Cm*                  F*
talvez me quede a dormir en la casa de la Ana



Karina camina por las calles de la verdad (esta parte es tocada con bajo)

guitar riff A:
e)  | --------5---------5-----------5---------------8-- | 
b)  | --7p5-7-----5p3-5-----7p5--7----------7p5--7----- | 
g)  | ------------------------------------------------- |  
d)  | ------------------------------------------------- |  
a)  | ------------------------------------------------- | 
e)  | ------------------------------------------------- | 
      Karina    camina    por las calles  de la ciudad 

guitar riff B:
e)  | -------7-7------------6-6--8------ | 
b)  | ------------8-8--7-7-------------- | 
g)  | ---------------------------------- |  
d)  | ---------------------------------- |  
a)  | ---------------------------------- | 
e)  | ---------------------------------- | 
     Nadie sigue tus pasos que se pierden en la oscuridad

     Karina camina por las calles de la verdad (con riff A)
     
     y aunque nadie te entienda me levanto y salgo a caminar (con riff B)


F#m                                                   Em
Son como las 3 sin ti que voy a hacer mi vida se acabará
F#m
Yo te cuidaré por siempre te querré
                    Em
se fue y no regresó mas

(Se repite interlude 1)


F#m
No hay nada que hacer, el tiempo echó a correr
                 Em
ya nadie te detendrá
   F#m
No vuelvas otra vez, no sigas a tus pies
                  Em
tu luz no se apagará


(Se repite interlude 2)


Karina    camina    por las calles  de la ciudad (con riff A)
Nadie sigue tus pasos que se pierden en la oscuridad(con riff B)
Karina camina por las calles de la verdad (con riff A)

Ending:
e)  | --------------7-7------------------5---------- | 
b)  | -------------------8-8-------5-6-8---8-6-5---- | 
g)  | ---------------------------7---------------7-- |  
d)  | ---------------------------------------------- |  
a)  | ---------------------------------------------- | 
e)  | ---------------------------------------------- | 
    y aunque nadie te entienda me levanto y salgo a caminar

Acordes usados en esta tablatura:
      D  Gm  Am  Em  F#m  E7  C#m* A#m* Bm* E* Cm*  F*
e)  | --2---3---0--7----9---7----9----6----7--7---8---8--- | 
b)  | --3---3---1--8---10---9----9----6----7--9---8--10--- | 
g)  | --2---3---2--9---11---7----9----6----7--9---8--10--- |  
d)  | --0---5---2--9---11---9----x----x----x--x---x---x--- |  
a)  | --0---5---0--7----9---7----x----x----x--x---x---x--- | 
e)  | --x---3---0--7----9---7----x----x----x--x---x---x--- |  		   
AcordesyTabs.com © 2008 Acordes y Tablaturas para guitarra. Tabs and Chords for guitar. Aviso Legal - Contacto
El uso de este sitio está sujeto a la aceptación de los términos y condiciones (31 usuarios online)