tablaturas, partituras y acordes para guitarra
Busca por banda/artista:
 
y/o título de la canción:
A B C D E F G H I J K L M N O P Q R S T U V W X Y Z 0 1 2 3 4 5 6 7 8 9 / Top 100 tabs
Categorías
Usuarios
usuario:
Darse de alta
password:
Artistas más visitados
Publicidad
TOP acordes y tablaturas de Silvio rodriguez


Carreton
de Silvio rodriguez
Puntúa este acorde/tab:      
(0.2/5)
Reportar este acorde/tab
  Añadir a tus favoritos
  Imprimir
Intro(1):

0-------2---3-- | 7-------5---3-- | 2^3------0-------- | ---------2------ | 0-----------0-- | 
0---0---0---0-- | 0---0---0---0-- | 0----0---0-------- | 3------------3-- | ----3---2------ | 
0-------0---0-- | 0-------0---0-- | 0--------0----0--- | -----2---------- | --------------- | 
--------------- | --------------- | ------------------ | 0--------------- | --------------- | 
--------------- | --------------- | ------------------ | ---------------- | 0-------------- | 
0-------------- | 0-------------- | 0--------0-------- | ---------------- | --------------- | 

3---2---0------ | 0---------------0- | 0---3---2-------0-- | 
0-----------4-- | 0-----------0----- | 1-----------0---0-- | 
2-------------- | 0-------0--------- | 0-------2-------0-- | 
--------------- | 2---2------------- | ------------------- | 
2-------------- | 2----------------- | 0-------2---------- | 
--------------- | 0----------------- | ----------------0-- | 


Em      B7            Em   D7-G
Carretón, coche en mis juegos
                  D7
con látigos de papel
Am      B7       Em
y una piedra de corcel
          Eb7dis     B7
tiraba en riendas de fuegos.


     Em  B7     Em    D7-G
Carretón, carreta luego,
                     D7
de andar triste y oxidado,
Am        B7    Em
se hizo trabajo pesado
          Em*     Eb7dis-G7
de mis hermanos mayores.
C                   G - Em-Eb7dis
Y al centro de los dolores
       B7    (1)
iba mi padre sentado.


Em     E7dis       D7dis
Niño apenas le miraba
     E7            Am7
irse, mas cuando volvía
        B7           Em
venía callado ante el día
           Am7      E7dis
tras de su yegua cansada.


B7dis    E7          Am7
Calle San Juan, por tu grava
  D7                G
cuántas huellas de pobreza
C        C/B    Am7-Am7/G
fueron vendiendo dureza
B7/F# - B7          Em   Em7
de la suerte de mi padre
C        C/B      Am7  Eb7dis
para entregarle a mi madre
     B7         (1)
un bocado de tristeza.


Em     Eb7dis         D7dis
Veo tus manos aún fuertes
     E7                Am7
triunfal del tiempo emergiendo,
       B7       Em
y tus arrugas sonriendo
          Am7     B7    Eb7dis-B7dis
detrás de tu vieja muerte.


        E7         Am7
Cuánto diera por tenerte,
D7                      G
aquí, que hoy todos son dueños,
C   C/B          Am7  Am7/G
este hoy que suma empeños
B7/F# - B7         Em-Em7
del sudor de tus camisas
C         C/B    Am7  Eb7dis
cuando brindamos sonrisas
        B7         (1)acabado en E mayor, en lugar de E menor
en carretones de sueños. 		   
AcordesyTabs.com © 2008 Acordes y Tablaturas para guitarra. Tabs and Chords for guitar. Aviso Legal - Contacto
El uso de este sitio está sujeto a la aceptación de los términos y condiciones (41 usuarios online)