tablaturas, partituras y acordes para guitarra
Busca por banda/artista:
 
y/o título de la canción:
A B C D E F G H I J K L M N O P Q R S T U V W X Y Z 0 1 2 3 4 5 6 7 8 9 / Top 100 tabs
Categorías
Usuarios
usuario:
Darse de alta
password:
Artistas más visitados
Publicidad
TOP acordes y tablaturas de Beatles


Estás en: Inicio > Letra B > Acordes y tablaturas de Beatles > Come Together 2
Come Together 2
de Beatles
Puntúa este acorde/tab:      
(0.5/5)
Reportar este acorde/tab
  Añadir a tus favoritos
  Imprimir
Beatles - Come together
=======================

Riff1 Main riff (echoes bass)
e------------------------
B------------------------
G-------------10~~~------
D-------------10~~~--12-
A-------10h12------------
E-10-10------------------

[Intro]
 Riff1         Riff1         Riff1         Riff1
Ssssh         Ssssh         Ssssh         Ssssh

D 'boogie'
e-----------------
B-----------------
G-----------------
D-7-7-9-9-7-7-9-9-
A-5-5-5-5-5-5-5-5-
E-----------------

A 'boogie'
e-----------------
B-----------------
G-----------------
D-----------------
A-7-7-9-9-7-7-9-9-
E-5-5-5-5-5-5-5-5-

D
 Here come old_ flat top, He come   groo__ving up slowly,
D
 He got_   Joo__ Joo__ eyeball, He one    ho__ly roller
           A
 He got    Hair_  down_    to_ his_ knee_;  
G                             [nc]
Got to be a joker, he just do what he please.

 Riff1         Riff1         Riff1         Riff1
Ssssh         Ssssh         Ssssh         Ssssh
D
 He wear no shoe_ shine_, he got    toe__ jam__ football
D
 He got_     mon__key__ finger, he shoot_    co__-ca__ co__la__
          A 
 He say, "I__ know__ you__,     you__ know__ me__."  
G                      [nc]
One thing I can tell you is you got to be free__

[Chorus]
         Bm         A       G     A [nc]
Come__ together___, Right__ now___,     over me

              Ssssh         Ssssh         Ssssh
 Riff1         Riff1         Riff1         Riff1
D
 He bag production__, He got    wal__rus__  gum__boot_
D
 He got   O__ no__ sideboard,  He one_    spi__nal__ crack__er__
          A
 He got   feet__    down__ be__low__ his__ knee__
G                                    [nc]
 Hold you in his armchair, you can feel his disease

[Repeat Chorus]

              Ssssh    RIGHT!
 Riff1         Riff1

[Solo]
D             D             A             A          Riff1         Riff1
                        Come

Solo 'Come'
e-15h17~---15h17-15h17p15-13--15h17~--15h17~---15h17-15h17p15-13-12~-
B--------------------------------------------------------------------
G--------------------------------------------------------------------
D--------------------------------------------------------------------
A--------------------------------------------------------------------
E--------------------------------------------------------------------
  A

e-12-12---------17~-
B-------15--13------
G-------------------
D-------------------
A-------------------
E-------------------

D
 He roller_ coaster, he got_     ear__ly__  war__ning__
D
 He got_     mud__dy__ water, He one     Mo__jo__ fil__ter__
         A
He say, "One___ and one___ and one___ is three__."
G                                 [nc]
Got to be good looking 'cause he's so hard to see 

[Repeat Chorus]

              Ssssh         Ssssh         Ssssh    OOOH!!
 Riff1         Riff1         Riff1         Riff1

[Outro]
D                     D 
                        Come together  yeah
D                     D
  Come together  yeah   Come together  yeah
D                     D
  Come together  yeah   Come together  YEAH_
D                        D
  Come together  yeah___   Come together  yeah___
D                        D
  Aaaaaaaaaahhh            Come together  yeah

Fade out..

Outro
-----------13(15)-13(15)13-10----------------------------------
-13(15)~----------------------13(15)~------------------13(15)~-
---------------------------------------10-12(14)12-10----------
---------------------------------------------------------------
---------------------------------------------------------------
---------------------------------------------------------------

-10-13(15)13-10--------------------------15(17)~---15(17)-15(17)15-15(17)~-
----------------13(15)~---10-13(15)13-10-----------------------------------
---------------------------------------------------------------------------
---------------------------------------------------------------------------
---------------------------------------------------------------------------
---------------------------------------------------------------------------

-17-20(22)20-17-20(22)~---17-20(22)20-17-20(22)~---15(17)-15(17)15-15(17)~-
---------------------------------------------------------------------------
---------------------------------------------------------------------------
---------------------------------------------------------------------------
---------------------------------------------------------------------------
---------------------------------------------------------------------------

---------------------------13(15)-13(15)13-10---------
----------------13(15)~-----------------------13(15)~-
-10-12(14)12-10---------------------------------------
------------------------------------------------------
------------------------------------------------------
------------------------------------------------------

Chords:
D  xx0232
A  x02220
G  320033
Bm x24432

Transcribed by arjan@rawktabs.tmfweb.nl
 ____                _    _        _         
|  _  __ ___      _| | _| |_ __ _| |__  ___ 
| |_) / _`   / / / |/ / __/ _` | '_ / __|
|  _ < (_| | V  V /|   <| || (_| | |_) \__ 
|_| \_\__,_| \_/\_/ |_|\_\__\__,_|_.__/|___/

http://www.rawktabs.tmfweb.nl

		   
AcordesyTabs.com © 2008 Acordes y Tablaturas para guitarra. Tabs and Chords for guitar. Aviso Legal - Contacto
El uso de este sitio está sujeto a la aceptación de los términos y condiciones (128 usuarios online)