tablaturas, partituras y acordes para guitarra
Busca por banda/artista:
 
y/o título de la canción:
A B C D E F G H I J K L M N O P Q R S T U V W X Y Z 0 1 2 3 4 5 6 7 8 9 / Top 100 tabs
Categorías
Usuarios
usuario:
Darse de alta
password:
Artistas más visitados
Publicidad
TOP acordes y tablaturas de Guardian


Estás en: Inicio > Letra G > Acordes y tablaturas de Guardian > I'll see you in heaven
I'll see you in heaven
de Guardian
Puntúa este acorde/tab:      
(0.8/5)
Reportar este acorde/tab
  Añadir a tus favoritos
  Imprimir
INTRO:                                 B                E               G#m                F#
 | ---------------- | -------------- | -------------------- | ----------------- | 
 | ---------------- | ---~9--7--9--- | -------------------- | ----------------- | 
 | -----4-~8--6--4- | -------------- | -~6--4--~8--6--4--4- | -~3-------------- | 
 | -~6------------- | -------------- | -------------------- | -----4----------- | 
 | ---------------- | -------------- | -------------------- | --------~6-~6--4- | 
 | ---------------- | -------------- | -------------------- | ----------------- | 

   B                E               G#m                F#
 | ---------------- | -----------9--7- | -~11--9--7--9--9- | -~7--------------- | 
 | ---------------- | -~9--7h-9------- | ----------------- | -----9-~7--------- | 
 | -----4-~8--6--4- | ---------------- | ----------------- | -----------8-~6--- | 
 | -~6------------- | ---------------- | ----------------- | ------------------ | 
 | ---------------- | ---------------- | ----------------- | ------------------ | 
 | ---------------- | ---------------- | ----------------- | ------------------ | 

   E                 F#          G#m                   F# 
 | ---------------- | ------------- | --------------------- | --------4-------- | 
 | ---------------- | ------------- | --------------------- | -~7-~7-----4----- | 
 | ---------------- | ---3--3------ | -4-----3--4h-6p-4p-3- | --------------6-- | 
 | -4--6--6--6--6-- | ------------- | ----6---------------- | ----------------- | 
 | ---------------- | ------------- | --------------------- | ----------------- | 
 | ---------------- | ------------- | --------------------- | ----------------- | 
 
 B                     E  
  It's hard to say goodbye my friend
               G#m             F#
  'Cause this waiting can last forever
 B                    E 
  Sooner or later the sun must set
  G#m                 F# 
  Ending this time together


    E               F#       G#m
  I wish that I had one more chance* * | --------------------------- | 
     E             G#m      F#         | --------------------------- |  
  To spend another day with you*       | -------4-~8--6-~4--6p-4---- | 
      E             F#     G#m         | -4h-6--------------------6- | 
  But even though I know I can't       | --------------------------- |  
                  F#                   | --------------------------- | 
  I'll see you in heaven

  I'll see you in heaven


      B                               
  The only thing that hurts more then 
  E 
  losing you                          
      G#m                            * | ---------2---------- | 
  Are all of the years                 | ---4--2------------- |       
     F#                                | -------------------- | 
  Of living without you                | -------------------- | 
 B                    E                | -------------------- | 
  I wanna run back to you              | -------------------- |   
      G#m
  And show you the life
       F#
  I've lived without you
         C#m                     E      
  'Cause living without you is the only 
       F#              
  that hurts more then you
  F#
  Wo, Oh-Oh

  Bridge:
 C#m                        E
  I've let so many years of life go by
  G                        B
  Thinking it's all worked out 
 C#m              E
  But I realise I do know how
     G
  To say that it's over
                 F#            
  And let you go for now       
                       Solo final :
  F#                                B
 | ---------------- | ---------------- | ---------------- | ---------------- | 
 | ---------------- | -----7-~9--9--7- | ---------------- | ---------------- | 
 | -----4-~8--6--4- | -~8------------- | ---------------- | ---------------- | 
 | -~6------------- | ---------------- | ---------------- | ---------------- | 
 | ---------------- | ---------------- | ---------------- | ---------------- | 
 | ---------------- | ---------------- | ---------------- | ---------------- |  		   
AcordesyTabs.com © 2008 Acordes y Tablaturas para guitarra. Tabs and Chords for guitar. Aviso Legal - Contacto
El uso de este sitio está sujeto a la aceptación de los términos y condiciones (18 usuarios online)