tablaturas, partituras y acordes para guitarra
Busca por banda/artista:
 
y/o título de la canción:
A B C D E F G H I J K L M N O P Q R S T U V W X Y Z 0 1 2 3 4 5 6 7 8 9 / Top 100 tabs
Categorías
Usuarios
usuario:
Darse de alta
password:
Artistas más visitados
Publicidad
TOP acordes y tablaturas de Guardian


Lullaby
de Guardian
Puntúa este acorde/tab:      
(0.4/5)
Reportar este acorde/tab
  Añadir a tus favoritos
  Imprimir
C              E                       C                     E
e | ---0--------0---------0---------0-------0-----0----------0----0-----0-- | e
B | ---1------1---1-------0----------0-------0----1-----------1----1----0-- | B
G | ---0----0-------0-----1----1-------1-1----1---0----0-------0-0--0---1-- | G
D | ---2--2-----------2---2--2---2----------------2--2---2--------------2-- | D
A | ---3------------------2-----------------------3---------------------2-- | A
E | ---0------------------0-----------------------0---------------------0-- | E

[INT] ->  [ C - E - C - E ]

            C
There's a light in the evening
         E
By the house with a window
           C
As she sleeps i hear the 
                 E
ticking of the clock
          C
When the cool of the morning
          E
Brings a hush to the shadow
        C
In the hall
                           E
There's a skylight to the dark

e | -------------------------------------------- | 
B | -------------------------------------------- | 
G | -------------0-1-0h1p0-0-------------------- | 
D | ----------2--------------------------------- | 
A | -------3------------------------------------ | 
E | -------------------------------------------- | 

Chorus
C
Hush
                E
Baby don't you cry
C                     E
And i will sing a lullaby


C - E - C - E - C - E - C - E

           C
And i can see
E
I've been away too long
                        C
Dusting out the closet by the stairs

When the door swinging open
            E
Bring her smile to the window
        C
In the sky
                         E
I see a hundred angels there

Chorus x2

End
C - E - C - E - C - E - C - E 		   
AcordesyTabs.com © 2008 Acordes y Tablaturas para guitarra. Tabs and Chords for guitar. Aviso Legal - Contacto
El uso de este sitio está sujeto a la aceptación de los términos y condiciones (27 usuarios online)