tablaturas, partituras y acordes para guitarra
Busca por banda/artista:
 
y/o título de la canción:
A B C D E F G H I J K L M N O P Q R S T U V W X Y Z 0 1 2 3 4 5 6 7 8 9 / Top 100 tabs
Categorías
Usuarios
usuario:
Darse de alta
password:
Artistas más visitados
Publicidad
TOP acordes y tablaturas de Guardian


Estás en: Inicio > Letra G > Acordes y tablaturas de Guardian > Sweet mistery
Sweet mistery
de Guardian
Puntúa este acorde/tab:      
(0.5/5)
Reportar este acorde/tab
  Añadir a tus favoritos
  Imprimir
==================
^    Bend
h    Hammer-on
p    Pull-off
/,  Slides
#    Harmonics
 
Timing = 4 / 4
NOTE!  This song uses an alternative tuning: [E B D G B e]
 
Some freak-O chord definitions
==============================
       [E  B  D  G  B  e]
B+      7  9  9  9  7  7
B       7  7  9  8  7  7
Be      x  7  9  8  0  0
Ba      x  0  4  4  0  x
A+      5  7  7  7  5  5
A       5  5  7  6  5  5
A/B     x  0  2  2  2  0
Ae      x  5  7  6  0  0
Dsus    x  0  0  2  3  0  
E+      0  2  2  2  0  0
E       0  0  2  1  0  0
Esus    0  0  2  2  0  0
Ea      x  x  9  9  9  x
 
 
[ INTRO ]  
B+  -  B  -  A+  -  A  -  

E+  -  E  -  E+  E+, E , Esus, Ba

E   -  E+, E , E+, E  -  Ea../
 
 
[ VERSE ONE ]
Dsus    -       A/B    -
Looking back at my old school
E             Esus      E         -
I think of the things I used to do
      Dsus   -       Asus    -       E    Esus  E   -
And I remember those crazy days gone by.
            Ae     -        Be      -
Sometimes I wish I could go back in time
   Ae       -        E     -
Be changin' what was then
          Ae    -           Be       -
But after everything's been said and done
    Ae       -      E      Esus, E , Esus, E/E
I'm glad you are my friend.
 
[ CHORUS ONE ]
           B+  B   A+  A
And it's a sweet mystery
         B+           B    
That you love me like you do
          A+    A          E+   E   E+   E+ , E , Esus
Oh it's a sweet mystery to me.
 
[ VERSE TWO ] (played almost same as verse one)

Little boy that my mama knew

Became a full-grown man.

I live my life like you taught me to, ya know I try the best that I can.

And your tender love is so much more

Than the naked eye can see.

When my daddy said, 'I love you boy'
            Ae../
You know it meant the world to me.
 
[ CHORUS TWO ] 
           B+  B   A+  A
And it's a sweet mystery
         B+           B    
That you love me like you do
          A+    A                E   Dsus   Asus   E  
Oh it's a sweet mystery to me.   
E   Dsus   Asus   E/
 
 
[ SOLO (I guess...) ]
 | ------------------------------------ | ------------------------------------ | 
 | ------------------------------------ | ------------------------------------ | 
 | -11h13-13-13------------------------ | -9/11---9--8--9--------------------- | 
 | ------------------------------------ | ----------------9 / 11--9----------- | 
 | ------------------------------------ | ------------------------------------ | 
 | ------------------------------------ | ------------------------------------ | 
 
 | -----0-----0-----0-----0-----0------ | -------0--------0-----0----------0-- | 
 | -----0-----0-----0-----0-----0------ | ----0--------0-----------0-----0---- | 
 | -8h9---6-----4-----2-----1---------- | -1 h2-----4--6-----8--------9------- | 
 | ------------------------------------ | ------------------------------------ | 
 | ------------------------------------ | ------------------------------------ | 
 | ------------------------------------ | ------------------------------------ | 
 
 
 | ----7---9/11--12--12----11---9------ | ------------------------------------ | 
 | ------------------------------------ | -10/12--10---9---------------------- | 
 | --------------------------------9--- | ----------------------9 /11--9------ | 
 | ------------------------------------ | ------------------9----------------- | 
 | ------------------------------------ | ------------------------------------ | 
 | ------------------------------------ | ------------------------------------ | 
 
 
 | -12p9p0--7p4p0---5p4p0---2p0-------- | -----0------------------------------ | 
 | -------0-------0-------0-----0------ | -----0------------------------------ | 
 | -------------------------------1---- | -----1------------------------------ | 
 | ------------------------------------ | -----2------------------------------ | 
 | ------------------------------------ | -----0------------------------------ | 
 | ------------------------------------ | -0---0------------------------------ | 
 
 
[ CHORUS THREE ]
           B+  B   A+  A
And it's a sweet mystery
         B+           B    
That you love me like you do
          A+    A       
Oh it's a sweet mystery 
B+  B    A+      A
Oh So so sweet to me
B+    B        A+    A          E+   E   E+   E+, E , Esus, Ba  
Sweet mystery, mystery to me.  Oh...   Oh, yeah.
   E  Esus, E , Esus, E    Ea../ 		   
AcordesyTabs.com © 2008 Acordes y Tablaturas para guitarra. Tabs and Chords for guitar. Aviso Legal - Contacto
El uso de este sitio está sujeto a la aceptación de los términos y condiciones (20 usuarios online)