tablaturas, partituras y acordes para guitarra
Busca por banda/artista:
 
y/o título de la canción:
A B C D E F G H I J K L M N O P Q R S T U V W X Y Z 0 1 2 3 4 5 6 7 8 9 / Top 100 tabs
Categorías
Usuarios
usuario:
Darse de alta
password:
Artistas más visitados
Publicidad
TOP acordes y tablaturas de Los de adentro


Platónico
de Los de adentro
Puntúa este acorde/tab:      
(0.3/5)
Reportar este acorde/tab
  Añadir a tus favoritos
  Imprimir
INTRO 


E | ------------------------------------------------------------------- | 
B | ------------------------------------------------------------------- | 
G | ------------------------------------------------------------------- | 
D | ----3-4---3-4-3-----3-4---3-4-3-----3-4---3-4-3-----3-4---3-4-3---- | 
A | --4-----4-------4-2-----2-------2-4-----4-------4-2-----2-------2-- | 
E | ------------------------------------------------------------------- | 


         1. Angel platonico ya murió,cogio sus alas y sobrevolo
         2. Y el ser herido otra conoció y entre sus risas el se refugió
         4. Cuando del cielo su santo cayó el bello angel con el se esfumó
         5. Ha llorado lagrimas de cristal, que nadie ve y solo él sentira
            
E | ------------------------------------------------------------------- | 
B | ------------------------------------------------------------------- | 
G | ------------------------------------------------------------------- | 
D | ----3-4---3-4-3-----3-4---3-4-3-----3-4---3-4-3-----3-4---3-4-3---- | 
A | --4-----4-------4-2-----2-------2-4-----4-------4-2-----2-------2-- | 
E | ------------------------------------------------------------------- | 
       

          1. por nuves negras y mares azules.
          2. y encontro el cielo vagando en sus nuves.
          4. y el ser mortal solo y triste ha quedado.
          5. ya que lo bello se fué de sus manos.
             
E | ------------------------------------------0---------------0-------- | 
B | --------------------------1-----------1-------1-------1-------1---- | 
G | ----------------------------------------0---0---0-------0---0---0-- | 
D | ------5-----5---------3-------3-----2---------------2-------------- | 
A | ----5-----5---5-----3---3---3---3-3---------------3---------------- | 
E | --3-----3-------3-1------------------------------------------------ | 


      3. Y empezó a amar el estar,     ganando a su rival
         en el mismo juego del amor, del cual el no saldra perdedor.
      6. Ya cansado y en resignación, de su motivación se alejo
         esto me ha causado un gran dolor, porque ese ser herido soy yo.
         
E | --------3--------------2-------------0-------------0--------------- | 
B | ------3------3-------3-----3-------1-----1-------1-----1----------- | 
G | ----0------0---0---2-----2---2---0-----0---0---0-----0---0--------- | 
D | ------------------------------------------------------------------- | 
A | --2--------------0-------------3-------------3--------------------- | 
E | ------------------------------------------------------------------- | 



CORO

G D C          G D C
        Platonico           un espontaneo
G D C          G D C               G
        Platonico           amor volcanico



PARTE II
            

         7. Angel divino el lo recordará, ella por siempre será su ideal
         8. Que un ser herido a ella la amo, angel platónico ella se volvió,

E | ------------------------------------------------------------------- | 
B | ------------------------------------------------------------------- | 
G | ------------------------------------------------------------------- | 
D | ----3-4---3-4-3-----3-4---3-4-3-----3-4---3-4-3-----3-4---3-4-3---- | 
A | --4-----4-------4-2-----2-------2-4-----4-------4-2-----2-------2-- | 
E | ------------------------------------------------------------------- | 
       
             
          7. y ella se quedara sin enterarse.
          8. como la otra en algo inalcanzable.

E | ------------------------------------------0---------------0-------- | 
B | --------------------------1-----------1-------1-------1-------1---- | 
G | ----------------------------------------0---0---0-------0---0---0-- | 
D | ------5-----5---------3-------3-----2---------------2-------------- | 
A | ----5-----5---5-----3---3---3---3-3---------------3---------------- | 
E | --3-----3-------3-1------------------------------------------------ | 


      9. En silencio el conquistara a un ángel que por ángel dejó;
         finalmente dije la verdad, verdad que solo el ser la vivió.

E | --------3--------------2-------------0-------------0--------------- | 
B | ------3------3-------3-----3-------1-----1-------1-----1----------- | 
G | ----0------0---0---2-----2---2---0-----0---0---0-----0---0--------- | 
D | ------------------------------------------------------------------- | 
A | --2--------------0-------------3-------------3--------------------- | 
E | ------------------------------------------------------------------- | 


RITMICA


G D C          G D C
        Platonico           un espontaneo
G D C          G D C               G
        Platonico           amor volcanico


C             G   C                   G
Y del cielo no caera, y el se resigna a olvidar
C             G   C                G
frecuentemente esta, perdido en otro lugar.

(al final se realiza un arpegio con las notas 
G - D - C ) 		   
AcordesyTabs.com © 2008 Acordes y Tablaturas para guitarra. Tabs and Chords for guitar. Aviso Legal - Contacto
El uso de este sitio está sujeto a la aceptación de los términos y condiciones (39 usuarios online)