tablaturas, partituras y acordes para guitarra
Busca por banda/artista:
 
y/o título de la canción:
A B C D E F G H I J K L M N O P Q R S T U V W X Y Z 0 1 2 3 4 5 6 7 8 9 / Top 100 tabs
Categorías
Usuarios
usuario:
Darse de alta
password:
Artistas más visitados
Publicidad
TOP acordes y tablaturas de My chemical romance


Estás en: Inicio > Letra M > Acordes y tablaturas de My chemical romance > Tree cheers for sweet revenge
Tree cheers for sweet revenge
de My chemical romance
Puntúa este acorde/tab:      
(0.4/5)
Reportar este acorde/tab
  Añadir a tus favoritos
  Imprimir
E ------|
B ------|
G --7---|  20 vezes
D --x---
A --5---|
D ------|

(Guitar 1)

E -------------------------------------------------|
B -------------------------------------------------|
G --19-19-19-19-19-19-19--14-14-14-14-14-14-14-----|
D ---x--x--x--x--x--x--x---x--x--x--x--x--x--x-----|
A --17-17-17-17-17-17-17--12-12-12-12-12-12-12-----|
D -------------------------------------------------|

E -------------------------------------------------|
B -------------------------------------------------|
G --12-12-12-12-12-12-12--11-11-11-11-11-11-11-----|
D ---x--x--x--x--x--x--x---x--x--x--x--x--x--x-----|
A --10-10-10-10-10-10-10---9--9--9--9--9--9--9-----|
D -------------------------------------------------|

Repete

E --------------------------------------------------------------|
B --------------------------------------------------------------|
G --12-12-12-12-12-12-12--14-14-14-14-14-14-14--9-9-9-9-9-9-9---|
D ---x--x--x--x--x--x--x---x--x--x--x--x--x--x--x-x-x-x-x-x-x---|
A --10-10-10-10-10-10-10--12-12-12-12-12-12-12--7-7-7-7-7-7-7---|
D --------------------------------------------------------------|

E ------------------------------------------------|
B ------------------------------------------------|
G --12-12-12-12-12-12-12--14-14-14-14-14-14-14----|
D ---x--x--x--x--x--x--x---x--x--x--x--x--x—-x----|
A --10-10-10-10-10-10-10--12-12-12-12-12-12-12----|
D ------------------------------------------------|

E ------------------------------------------------|
B ------------------------------------------------|
G --16-16-16-16-16-16-16--18-18-18-18-18-18-18----|
D ---x--x--x--x--x--x--x---x--x--x--x--x--x--x----|
A --14-14-14-14-14-14-14--16-16-16-16-16-16-16----|
D ------------------------------------------------|

 (Guitar 2)

E --------------------------------------------------------------|
B --------------------------------------------------------------|
G --------------------------------------------------------------|
D --0-0-0-0-0-0-0--0-0-0-0-0-0-0--0-0-0-0-0-0-0--0-0-0-0-0-0-0--|
A --0-0-0-0-0-0-0--0-0-0-0-0-0-0--0-0-0-0-0-0-0--0-0-0-0-0-0-0--|
D --0-0-0-0-0-0-0--0-0-0-0-0-0-0--0-0-0-0-0-0-0--0-0-0-0-0-0-0--|

E --------------------------------------------------------------|
B --------------------------------------------------------------|
G --------------------------------------------------------------|
D --9-9-9-9-9-9-9--9-9-9-9-9-9-9--9-9-9-9-9-9-9--9-9-9-9-9-9-9--|
A --9-9-9-9-9-9-9--9-9-9-9-9-9-9--9-9-9-9-9-9-9--9-9-9-9-9-9-9--|
D --9-9-9-9-9-9-9--9-9-9-9-9-9-9--9-9-9-9-9-9-9--9-9-9-9-9-9-9--|

E --------------------------------------------------------------|
B --------------------------------------------------------------|
G --------------------------------------------------------------|
D --2-2-2-2-2-2-2--2-2-2-2-2-2-2--2-2-2-2-2-2-2--2-2-2-2-2-2-2--|
A --2-2-2-2-2-2-2--2-2-2-2-2-2-2--2-2-2-2-2-2-2--2-2-2-2-2-2-2--|
D --2-2-2-2-2-2-2--2-2-2-2-2-2-2--2-2-2-2-2-2-2--2-2-2-2-2-2-2--|

E ---------------------------------------------------------------|
B ---------------------------------------------------------------|
G ---------------------------------------------------------------|
D --7-7-7-7-7-7-7--7-7-7-7-7-7-7--7-7-7-7-7-7-7--7-7-7-7-7-7-7---|
A --7-7-7-7-7-7-7--7-7-7-7-7-7-7--7-7-7-7-7-7-7--7-7-7-7-7-7-7---|
D --7-7-7-7-7-7-7--7-7-7-7-7-7-7--7-7-7-7-7-7-7--7-7-7-7-7-7-7---|



E ----------------------------------------------|
B ----------------------------------------------|
G ----------------------------------------------|
D --9-9-9-9-9-9-9-------2~-2--2~--7-7-7-7-------|
A --9-9-9-9-9-9-9--x4---2~-2--2~--7-7-7-7--x4---|
D --9-9-9-9-9-9-9-------2~-2--2~--7-7-7-7-------|

Song ends on

E ------|
B ------|
G ------|
D --0---|
A --0---|
D --0---|

Lyrics:

Well if you wanted honesty, that's all you had to say.
I never want to let you down or have you go, it's better off this way.
For all the dirty looks, the photographs your boyfriend took,
Remember when you broke your foot from jumping out the second floor?

I'm not okay.
I'm not okay.
I'm not okay.
You wear me out.

What will it take to show you that it's not the life it seems?
(I'm not okay)
I told you time and time again you sing the words but don't know what they mean
(I'm not okay)
So be a joke and look, another line without a hook
I held you close as we both shook for the last time take a good hard look!

I'm not okay.
I'm not okay.
I'm not okay.
You wear me out.

Forget about the dirty looks
The photographs your boyfriend took?
You said you read me like a book, but the pages are all torn and frayed

I'm okay.
I'm okay!
I'm okay, now
(I'm okay, now)

But you really need to listen to me
Because I'm telling you the truth
I mean this I'm okay!
(Trust Me)

I'm not okay
I'm not okay
Well, I'm not okay
I'm not o-f**king-kay
I'm not okay
I'm not okay
(Okay)		   
AcordesyTabs.com © 2008 Acordes y Tablaturas para guitarra. Tabs and Chords for guitar. Aviso Legal - Contacto
El uso de este sitio está sujeto a la aceptación de los términos y condiciones (27 usuarios online)