tablaturas, partituras y acordes para guitarra
Busca por banda/artista:
 
y/o título de la canción:
A B C D E F G H I J K L M N O P Q R S T U V W X Y Z 0 1 2 3 4 5 6 7 8 9 / Top 100 tabs
Categorías
Usuarios
usuario:
Darse de alta
password:
Artistas más visitados
Publicidad
TOP acordes y tablaturas de Foo fighters


Over and out
de Foo fighters
Puntúa este acorde/tab:      
(0.3/5)
Reportar este acorde/tab
  Añadir a tus favoritos
  Imprimir
Tuning: eBGDAE


Intro
e||-------------------------------------------------||
B||-------------------------------------------------||
G||----------0-----0-----0--------------------------||
D||---------------------------4----4----2p0----0--||
A||----2--------------2-----0-----0-----0----(0)----||
E||-0-----0-----------------------------------------||

e||-------------------------------------------------||
B||-------------------------------------------------||
G||----------0----0-----0-------------------2p0-----||
D||--------------------------4----4----2p0---2p0--||
A||----2-------------2-----0-----0-----0------------||
E||-0-----0-----------------------------------------||

e||-------------------------------------------------||
B||-------------------------------------------------||
G||----------0-----0-----0-----------------------0--||
D||---------------------------4----4----2p0-------||
A||----2--------------2-----0-----0-----0-----0-----||
E||-0-----0-----------------------------------------||

e||-------------------||
B||-------------------||
G||-------------------||
D||-------0--------0--||
A||----2--------0-----||
E||-3--------2--------||


Verse 1
e||-------------------------------------------------||
B||-------------------------------------------------||
G||----------0-----0-----0--------------------------||
D||---------------------------4----4----2p0----0--||
A||----2--------------2-----0-----0-----0----(0)----||
E||-0-----0-----------------------------------------||

e||-------------------------------------------------||
B||-------------------------------------------------||
G||----------0----0-----0-------------------2p0-----||
D||--------------------------4----4----2p0---2p0--||
A||----2-------------2-----0-----0-----0------------||
E||-0-----0-----------------------------------------||

e||-------------------------------------------------||
B||-------------------------------------------------||
G||----------0-----0-----0--------------------------||
D||---------------------------4----4----2p0----0--||
A||----2--------------2-----0-----0-----0-----0-----||
E||-0-----0-----------------------------------------||

e||-------------------||
B||-------------------||
G||-------------------||
D||-------0--------0--||
A||----2--------0-----||
E||-3--------2--------||

e||-------------------------------------------------||
B||-------------------------------------------------||
G||----------0-----0-----0--------------------------||
D||---------------------------4----4----2p0----0--||
A||----2--------------2-----0-----0-----0----(0)----||
E||-0-----0-----------------------------------------||

e||-------------------------------------------------||
B||-------------------------------------------------||
G||----------0----0-----0-------------------2p0-----||
D||--------------------------4----4----2p0---2p0--||
A||----2-------------2-----0-----0-----0------------||
E||-0-----0-----------------------------------------||

e||-------------------------------------------------||
B||-------------------------------------------------||
G||----------0-----0-----0--------------------------||
D||---------------------------4----4----2p0----0--||
A||----2--------------2-----0-----0-----0----(0)----||
E||-0-----0-----------------------------------------||

e||-------------------------------------------------||
B||-------------------------------------------------||
G||----------0----0-----0-------------------2p0-----||
D||-------------------------4----4----2p0----2p0--||
A||----2-------------2-----0-----0-----0------------||
E||-0-----0-----------------------------------------||

e||-------------------------------------------------||
B||-------------------------------------------------||
G||----------0-----0-----0--------------------------||
D||---------------------------4----4----2p0----0--||
A||----2--------------2-----0-----0-----0-----0-----||
E||-0-----0-----------------------------------------||

e||-------------------------------------------||
B||-------------------------------------------||
G||----------------------------0-----0-----0--||
D||-------0--------0--------------------------||
A||----2--------0--------2--------------2-----||
E||-3--------2--------0-----0-----------------||

e||-------------------------------------------||
B||-------------------------------------------||
G||----------------------------0-----0-----0--||
D||-------0--------0--------------------------||
A||----2--------0--------2--------------2-----||
E||-3--------2--------0-----0-----------------||

e||-------------------||
B||-------------------||
G||-------------------||
D||-------0--------0--||
A||----2--------0-----||
E||-3--------2--------||


Pre-Chorus
e||-------------------||
B||-------------------||
G||-0-0-0-0-0-0-0-0-0-||
D||-2-2-2-2-2-2-2-2-2-||
A||-2-2-2-2-2-2-2-2-2-||
E||-0-0-0-0-0-0-0-0-0-||


Chorus
e||-0-0-0-0-0-0-0-0--0-0-0-0-0-0-0-0-||
B||-0-0-0-0-0-0-0-0--0-0-0-0-0-0-0-0-||
G||-6-6-6-6-6-6-6-6--4-4-4-4-4-4-4-4-||
D||-7-7-7-7-7-7-7-7--5-5-5-5-5-5-5-5-||
A||-7-7-7-7-7-7-7-7--5-5-5-5-5-5-5-5-||
E||-5-5-5-5-5-5-5-5--3-3-3-3-3-3-3-3-||

e||-0-0-0-0-0-0-0-0-||
B||-0-0-0-0-0-0-0-0-||
G||-6-6-6-6-6-6-6-6-||
D||-7-7-7-7-7-7-7-7-||
A||-7-7-7-7-7-7-7-7-||
E||-5-5-5-5-5-5-5-5-||


Outro
e||-0-0-0-0-0-0-0-0--0-0-0-0-0-0-0-0-||
B||-0-0-0-0-0-0-0-0--0-0-0-0-0-0-0-0-||
G||-0-0-0-0-0-0-0-0--6-6-6-6-6-6-6-6-||
D||-2-2-2-2-2-2-2-2--7-7-7-7-7-7-7-7-||
A||-2-2-2-2-2-2-2-2--7-7-7-7-7-7-7-7-||
E||-0-0-0-0-0-0-0-0--5-5-5-5-5-5-5-5-||

e||-0-0-0-0--0-0-0-0--0-||
B||-0-0-0-0--0-0-0-0--0-||
G||-4-4-4-4--4-4-4-4--0-||
D||-5-5-5-5--4-4-4-4--2-||
A||-5-5-5-5--4-4-4-4--2-||
E||-3-3-3-3--2-2-2-2--0-||		   
AcordesyTabs.com © 2008 Acordes y Tablaturas para guitarra. Tabs and Chords for guitar. Aviso Legal - Contacto
El uso de este sitio está sujeto a la aceptación de los términos y condiciones (36 usuarios online)