tablaturas, partituras y acordes para guitarra
Busca por banda/artista:
 
y/o título de la canción:
A B C D E F G H I J K L M N O P Q R S T U V W X Y Z 0 1 2 3 4 5 6 7 8 9 / Top 100 tabs
Categorías
Usuarios
usuario:
Darse de alta
password:
Artistas más visitados
Publicidad
TOP acordes y tablaturas de Foo fighters


Free me
de Foo fighters
Puntúa este acorde/tab:      
(0.2/5)
Reportar este acorde/tab
  Añadir a tus favoritos
  Imprimir
Beginning and Verse
E|---------0---------0---------0-------------|
B|---------0---------0---------0-------------|
G|-------------------------------------------|
D|-------------------------------------------|
A|-------------------------------------------|
E|-0-0-7-0---0-0-7-0---0-0-7-0---0-0-7-0-6-5-|

E|--------------------------------|
B|--------------------------------|
G|--------------------------------|
D|--------------------------------|
A|--------------------------------|
E|-0-0-7-0-6-5--0-0-7-0-6-5--413-|

Riff
E|----------------------------------------------|
B|----------------------------------------------|
G|----------------------------------------------|
D|----------------------------------------------|
A|---------7^---------7^---------7^-------------|
E|-0-0-7-0----0-0-7-0----0-0-7-0----0-0-7-0-6-5-|

Chorus
Guitar 1
E|-------------------------------------------------------------------------------------------------|
B|-------------------------------------------------------------------------------------------------|
G|-------------------------------------------------------------------------------------------------|
D|-5-5-5-5-5-5-5-5-5-5-5-5-7-7-7-7-7-7-7-7-7-7-7-7-6-6-6-6-6-6-6-6-6-6-6-6-2-2-2-2-2-2-2-2-2-2-2-2-|
A|-5-5-5-5-5-5-5-5-5-5-5-5-7-7-7-7-7-7-7-7-7-7-7-7-6-6-6-6-6-6-6-6-6-6-6-6-2-2-2-2-2-2-2-2-2-2-2-2-|
E|-3-3-3-3-3-3-3-3-3-3-3-3-5-5-5-5-5-5-5-5-5-5-5-5-4-4-4-4-4-4-4-4-4-4-4-4-0-0-0-0-0-0-0-0-0-0-0-0-|

Guitar 2
E|-----------0-----------0-----------0-----------0-----------0-----------0-----------0-----------0-|
B|--------0-----------0-----------0-----------0-----------0-----------0-----------0-----------0----|
G|-------------------------------------------------------------------------------------------------|
D|-5---5-------5---5-------7---7-------7---7-------6---6-------6---6-------2---2-------2---2-------|
A|-5---5-------5---5-------7---7-------7---7-------6---6-------6---6-------2---2-------2---2-------|
E|-3---3-------3---3-------5---5-------5---5-------4---4-------4---4-------0---0-------0---0-------|

Breakdown
Guitar 1
E|----------------------------------------------------------------------|
B|----------------------------------------------------------------------|
G|-5-5-5-5-4^-5-5-5-5-4^-7-7-7-7----7-7-7-7-----------------------------|
D|-5-5-5-5----5-5-5-5----7-7-7-7-5^-7-7-7-7-5^-777777777777777777777777-|
A|-3-3-3-3----3-3-3-3----5-5-5-5----5-5-5-5----777777777777777777777777-|
E|---------------------------------------------555555555555555555555555-|

Guitar 2 (Skip the Slide the 2nd Time Around, Both Times)
E|--------------------------------------------------------------------------|
B|--------------------------------------------------------------------------|
G|-5-5-5-5-4^-5-5-5-5-4^-7-7-7-7----7-7-7-7---------4^----4^----4^----------|
D|-5-5-5-5----5-5-5-5----7-7-7-7-5^-7-7-7-7-5^--00-4--00-4--00-4------------|
A|-3-3-3-3----3-3-3-3----5-5-5-5----5-5-5-5---------------------------------|
E|---------------------------------------------------------------------134-|

Add This in Place of the 2nd Slides of the Breakdown
E|-------------------|
B|-------------------|
G|-------------------|
D|-------------------|
A|-------------------|
E|-7-7-6-6-5-5-3-3-0-|

Final Riff
E|----------------------------------------------------|
B|----------------------------------------------------|
G|----------------------------------------------------|
D|----------------------------------------------------|
A|---------7^---------7^---------7^-------------------|
E|-0-0-7-0----0-0-7-0----0-0-7-0----7-7-6-6-5-5-3-3-0-|

Ending Bit
E|---------------------------0-|
B|---------------------------5-|
G|---------------------------4-|
D|---------------------------2-|
A|-----------------------------|
E|-0-0-7-0-6-5---0-0-7-0-6-5---|		   
AcordesyTabs.com © 2008 Acordes y Tablaturas para guitarra. Tabs and Chords for guitar. Aviso Legal - Contacto
El uso de este sitio está sujeto a la aceptación de los términos y condiciones (35 usuarios online)