tablaturas, partituras y acordes para guitarra
Busca por banda/artista:
 
y/o título de la canción:
A B C D E F G H I J K L M N O P Q R S T U V W X Y Z 0 1 2 3 4 5 6 7 8 9 / Top 100 tabs
Categorías
Usuarios
usuario:
Darse de alta
password:
Artistas más visitados
Publicidad
TOP acordes y tablaturas de Foo fighters


Estás en: Inicio > Letra F > Acordes y tablaturas de Foo fighters > The last song
The last song
de Foo fighters
Puntúa este acorde/tab:      
(0.6/5)
Reportar este acorde/tab
  Añadir a tus favoritos
  Imprimir
Tuning: eBGDAE


Intro
     B5
e||----------------------||
B||----------------------||
G||--4-4-4-4-4-4-4-4-4-4-||
D||--x-x-x-x-x-x-x-x-x-x-||
A||--2-2-2-2-2-2-2-2-2-2-||
E||----------------------||

     B5  A5  C#5 A5  E5
e||----------------------||
B||----------------------||
G||--4-4-2-2-6-6-2-2-----||
D||--4-4-2-2-6-6-2-2-2-2-||
A||--2-2-0-0-4-4-0-0-2-2-||
E||------------------0-0-||


Chorus
     B5      E5      D5      C#5
e||----------------------------------||
B||----------------------------------||
G||--4-4-4-4---------7-7-7-7-6-6-6-6-||
D||--4-4-4-4-2-2-2-2-7-7-7-7-6-6-6-6-||
A||--2-2-2-2-2-2-2-2-5-5-5-5-4-4-4-4-||
E||----------0-0-0-0-----------------||



Solo
Gtr. Lead
e||---------------------------|----------------------------|
B||---------------------------|----------------------------|
G||--------8------------------|--------8-------------------|
D||-----------9--7------------|-----------9--7-----11------|
A||-----------------9--7------|-----------------9------11--|
E||--7--7-----------------10--|--9--9----------------------|

e|---------------------------|----------------------------||
B|---------------------------|----------------------------||
G|--------8------------------|--------8-------------------||
D|-----------9--7------------|-----------9--7-------------||
A|-----------------9--7------|-----------------9--7-------||
E|--5--5-----------------10--|--0--0-----------------10---||


Gtr. Rhythm
     B5                        C#5
e||--------------------------|------------------------------|
B||--------------------------|------------------------------|
G||--4-4-4-4-4-4-4-4-4-4-4-4-|-6-6-6-6-6-6-6-6-6-6-6-6-6-6--|
D||--4-4-4-4-4-4-4-4-4-4-4-4-|-6-6-6-6-6-6-6-6-6-6-6-6-6-6--|
A||--2-2-2-2-2-2-2-2-2-2-2-2-|-4-4-4-4-4-4-4-4-4-4-4-4-4-4--|
E||--------------------------|------------------------------|
    A5                        E5
e|--------------------------|------------------------------||
B|--------------------------|------------------------------||
G|--2-2-2-2-2-2-2-2-2-2-2-2-|-2-2-2-2-2-2-2-2-2-2-2-2-2-2--||
D|--2-2-2-2-2-2-2-2-2-2-2-2-|-2-2-2-2-2-2-2-2-2-2-2-2-2-2--||
A|--0-0-0-0-0-0-0-0-0-0-0-0-|-0-0-0-0-0-0-0-0-0-0-0-0-0-0--||
E|--------------------------|------------------------------||		   
AcordesyTabs.com © 2008 Acordes y Tablaturas para guitarra. Tabs and Chords for guitar. Aviso Legal - Contacto
El uso de este sitio está sujeto a la aceptación de los términos y condiciones (28 usuarios online)