tablaturas, partituras y acordes para guitarra
Busca por banda/artista:
 
y/o título de la canción:
A B C D E F G H I J K L M N O P Q R S T U V W X Y Z 0 1 2 3 4 5 6 7 8 9 / Top 100 tabs
Categorías
Usuarios
usuario:
Darse de alta
password:
Artistas más visitados
Publicidad
TOP acordes y tablaturas de My chemical romance


Hang em high
de My chemical romance
Puntúa este acorde/tab:      
(0.4/5)
Reportar este acorde/tab
  Añadir a tus favoritos
  Imprimir
Intro:
--6-5------------------------------------------------------------------------|
--5-5-6-6--6-----------------------------------------------------------------|
--7-5-5-5--5-----------------------------------------------------------------|
--0---3-3--7-----------------------------------------------------------------|
-----------------------------------------------------------------------------|
-----------------------------------------------------------------------------|

Pre-Verso:
-----------------------------------------------------------------------------|
-----------------------------------------------------------------------------|
--7777777777777777-----------------------------------------------------------|
--7777777777777777-33333333-88877777-----------------------------------------|
--5555555555555555-33333333-88877777-----------------------------------------|
-------------------11111111-66655555-----------------------------------------|

Verso:
-----------------------------------------------------------------------------|
-----------5555555-----------------------------------------------------------|
-----------8888888-----------------------------------------------------------|
-----------0000000-33333333-77777777-----------------------------------------|
-5-8-7-10----------33333333-77777777-----------------------------------------|
-------------------11111111-55555555-----------------------------------------|

Pre-refrão
-----------------------------------------------------------------------------|
-----------------------------------------------------------------------------|
-33333333-66666666-77777777---------33322222-12-10-9-7-6-7-6-2---------------|
-33333333-66666666-77777777-3333333-33322222---------------------------------|
-11111111-44444444-55555555-3333333-11100000-10--8-7-5-4-5-4		   
AcordesyTabs.com © 2008 Acordes y Tablaturas para guitarra. Tabs and Chords for guitar. Aviso Legal - Contacto
El uso de este sitio está sujeto a la aceptación de los términos y condiciones (24 usuarios online)