tablaturas, partituras y acordes para guitarra
Busca por banda/artista:
 
y/o título de la canción:
A B C D E F G H I J K L M N O P Q R S T U V W X Y Z 0 1 2 3 4 5 6 7 8 9 / Top 100 tabs
Categorías
Usuarios
usuario:
Darse de alta
password:
Artistas más visitados
Publicidad
TOP acordes y tablaturas de Rush


Estás en: Inicio > Letra R > Acordes y tablaturas de Rush > Driven (solo rush in rio)
Driven (solo rush in rio)
de Rush
Puntúa este acorde/tab:      
(0.2/5)
Reportar este acorde/tab
  Añadir a tus favoritos
  Imprimir
s  s  s  s  s  s  s  s  s  s  s  s  s  s  s  s       s s  s  s    
||----12-------14-------11-------13-------10----12----|----9-------11---
||-4:----14-14----14----13-13----13
----12----12|-7:---11-11------
||-4:-------------------------------------------------|-8:--------------
||----------------------------------------------------|-----------------
                                                                        

s  s  s  s  s  s  s  s  s  s       s  s  s  s  s  s  s  s  s  s  s      
------8--------8--------8-----|----12-------14-------11-------13--------
119-----9--9-----9--9------9/|-4:----14-14----14----13-13----13----
------------------------------|-4:--------------------------------------
------------------------------|-----------------------------------------
                                                                        

s  s  s  s  s       s s  s  s  s  s  s  s  s  s  e       s s s s s s   
---10----12----|----9-------11-------8---------8----|----4---6/8-6-----
12----12----12|-3:---11-11----119------9--9-----9|-9:---6-------6---
---------------|-4:---------------------------------|-8:---------------
---------------|------------------------------------|------------------
                                                                        

 s s s s s s s s s s s s      w+  w    s  s s s  s s s  s s s  s s    
-4---6/8-6---4---6/8-6---|----8-|---||-9------11-----9------11--------
--6-------6--6-------6-|-4:-9-|---||-10-----12-----10-----12--------
-------------------------|-4:---|---||----0-0----0-0----0-0----0-0----
-------------------------|------|---||--------------------------------
                                                                        

s  s s  s      s  s s s  s s s  s s  s s  s s  s      s  s s s  s s     
9----9----|----9------11-----12---12---12---11---|----9------11---------
10---10---|-7:-10-----12-----13---13---13---12---|-4:-10-----12---------
---0----0-|-8:----0-0----0-0----0----0----0----0-|-4:----0-0----0-0-----
----------|--------------------------------------|----------------------
                                                                        

s  s s s  s s s  s s  s   s  s s s  s s e  h      h       s  s s s  s   
9------11-----9----9----|-9------11-----12-r-|----r-||----9------11-----
10-----12-----10---10---|-10-----12-----13-e-|-2:-e-||-4:-10-----12-----
---0-0----0-0----0----0-|----0-0----0-0----s-|-4:-s-||-4:----0-0----0---
------------------------|------------------t-|----t-||------------------
                                                                        

s s  s s s  s s s  s s  s   s  s s s  s s e  h    s  s s s  s s e  h    
--12-----9------11---12---|-11-----9------12-r-||-9------11-----9--r----
--13-----10-----12---13---|-12-----10-----13-e-||-10-----12-----10-e----
0----0-0----0-0----0----0-|----0-0----0-0----s-||----0-0----0-0----s----
--------------------------|------------------t-||------------------t----
                                                                        

   s  s s s  s s s  s s s  s s s  s s  s   s  s s s  s s e+ h+          
||-9------11-----9------12-----9----11---|-9------11-----12----|--------
||-10-----12-----10-----13-----10---12---|-10-----12-----13----|-3:-----
||----0-0----0-0----0-0----0-0----0----0-|----0-0----0-0-------|-4:-----
||---------------------------------------|---------------------|--------
                                                                        

h  e e        s s s s s s s s s s s s s s s s   s s s s s s e e e e     
--------||------------------------------------|---------------------|---
---3/10||-4:---------------------------------|---------------------|---
--------||-4:-3-----5-----3-----5-----3---3---|-3-----5-----6-6-6-5|---
--------||------0-0---0-0---0-0---0-0---0---0-|---0-0---0-0---------|---
                                                                        

s s s s s s s s s s s s s s s s      s s s s s s s s s s s s      s s   
--------------------------------|----------------------------|----------
2-----4-----2-----4-----2---2---|-3:-2-----4-----5---5---5---|-4:-2-----
--3-0---5-0---3-0---5-0---3---3-|-4:---3-0---5-0---6---6---6-|-4:---3---
--------------------------------|----------------------------|----------
                                                                        

 s s s s s s s s s s s s s s      s s s s s s s s s s s s s s           
-----------------------------|--------------------------------||--------
---4-----2-----4-----2---2---|-7:-2-----4-----5---5---5---4---||*-4:----
-0---5-0---3-0---5-0---3---3-|-8:---3-0---5-0---6---6---6---5-||*-4:----
-----------------------------|--------------------------------||--------
                                                                        

s s s s s s s s s s s s s s s s      s s s s s s s s s s s s            
--------------------------------|-----------------------------||--------
2-----4-----2-----4-----2---2---|-3:-2-----4-----5---5---5---*||--------
--3-0---5-0---3-0---5-0---3---3-|-4:---3-0---5-0---6---6---6-*||--------
--------------------------------|-----------------------------||--------		   
AcordesyTabs.com © 2008 Acordes y Tablaturas para guitarra. Tabs and Chords for guitar. Aviso Legal - Contacto
El uso de este sitio está sujeto a la aceptación de los términos y condiciones (33 usuarios online)