tablaturas, partituras y acordes para guitarra
Busca por banda/artista:
 
y/o título de la canción:
A B C D E F G H I J K L M N O P Q R S T U V W X Y Z 0 1 2 3 4 5 6 7 8 9 / Top 100 tabs
Categorías
Usuarios
usuario:
Darse de alta
password:
Artistas más visitados
Publicidad
TOP acordes y tablaturas de System of a down


Sad statue
de System of a down
Puntúa este acorde/tab:      
(0.2/5)
Reportar este acorde/tab
  Añadir a tus favoritos
  Imprimir
Riff A
Eb|-----------------------------------------------|
Bb|-----------------------------------------------|
Gb|-----------------------------------------------|
Db|-----------------------------------------------|
Ab|--5p0-5p0-5p0-5p0-5p0-5p0--6-------------------|
Db|-----------------------------------------------|

Riff B
Eb|-----------------------------------------------|
Bb|-----------------------------------------------|
Gb|-----------------------------------------------|
Db|-7---------------------------------------------|
Ab|-5-----------------5p0-5p0-5p0-5p0-5p0-5p0--6--|
Db|---0-0-0-0-0-0-0-0-----------------------------|
      P.M   P.M   P.M

Riff C
Eb|-----------------------------------------------|
Bb|-----------------------------------------------|
Gb|-----------------------------------------------|
Db|-7-----------------7--10-8---------------------|
Ab|-5-----------------5--8--6---------------------|
Db|---0-0-0-0-0-0-0-0-----------------------------|
      P.M   P.M   P.M

Riff D
Eb|-----------------------------------------------|
Bb|-----------------------------------------------|
Gb|-----------------------------------------------|
Db|-7-----------------------7--10-8---7--10-8-----|
Ab|-5-----------------------5--8--6---5--8--6-----|
Db|---0-0-0-0-0-0-0-0--15------------------------|
      P.M   P.M   P.M

Riff E
Eb|-----------------------------------------------|
Bb|-----------------------------------------------|
Gb|-----------------------------------------------|
Db|-----------------------------------------------|
Ab|---5-8-6---5-8-6---5-8-6---5-8-6---------------|
Db|-0-------0-------0-------0---------------------|

Riff F
Eb|-----------------------------------------------|
Bb|-----------------------------------------------|
Gb|-----------------------------------------------|
Db|-7-7-7-7-7-7-8---7-7-7-7-7-7-8-----------------|
Ab|-5-5-5-5-5-5-6---5-5-5-5-5-5-6-----------------|
Db|-----------------------------------------------|

Riff G
Eb|-----------------------------------------------|
Bb|-----------------------------------------------|
Gb|-----------------------------------------------|
Db|-----------------------------------------------|
Ab|-1~----5~----0~----3~--------------------------|
Db|-1~----5~----0~----3~--------------------------|

Riff H
Eb|-----------------------------------------------|
Bb|-----------------------------------------------|
Gb|-----------------------------------------------|
Db|-----------------------------------------------|
Ab|-1~----5~----0~----3~----3~--------------------|
Db|-1~----5~----0~----3~----3~--------------------|

Riff I
Eb|---------------------------------------------------------------------|
Bb|---------------------------------------------------------------------|
Gb|-----7---8---7--------7---6---7-------------------------7---6---7----|
Db|---5-----------------------------------7---8---7------5--------------|
Ab|-6-----6---6---6----5---5---5---5----5---5---5---5--6-----6---6---6--|
Db|------------------5----------------0---------------------------------|

Riff J
Eb|-----------------------------------------------|
Bb|-----------------------------------------------|
Gb|-----------------------------------------------|
Db|-7-------7-------------------------------------|
Ab|-5-------5-------5p0-5p0-5p0-5p0-5p0-5p0-6-----|
Db|---0-0-0---0-0-0-------------------------------|
       P.M     P.M

Riff K
Eb|-----------------------------------------------|
Bb|-----------------------------------------------|
Gb|-----------------------------------------------|
Db|-7-------7-----------7--10-8-------------------|
Ab|-5-------5-----------5--8--6-------------------|
Db|---0-0-0---0-0-0-0-0---------------------------|
       P.M    P.M   P.M

Riff L
Eb|----------------------------------------------|
Bb|----------------------------------------------|
Gb|----------------------------------------------|
Db|-7-------7-----------7--10-8---7--10-8---7----|
Ab|-5-------5-----------5--8--6---5--8--6---5----|
Db|---0-0-0---0-0-0-0-0--------------------------|
       P.M    P.M   P.M


Ordem: Riff A  4x
       Riff B 
       Riff C
       Riff B
       Riff D
       Riff B
       Riff C
       Riff B
       Riff D
       Riff E  2x
       Riff F  2x
       Riff E  2x
       Riff F  2x
       Riff G  2x
       Riff E  2x
       Riff F  2x
       Riff E  2x
       Riff F  2x
       Riff G  
       Riff H
       Riff I  2x
       Riff B
       Riff C
       Riff B
       Riff D
       Riff B
       RIff C
       Riff B
       Riff D
       Riff G
       Riff H
       Riff J
       Riff K
       Riff J
       Riff L


Letra:
Conquest to the lover and your love to the fire
Permanence unfolding in the absolute

Forgiveness is the
Ultimate sacrifice
Eloquence belongs
To the conqueror

The pictures of time and space are rearranged
In this little piece of typical tragedy

Justified candy
Brandy for the nerves
Eloquence belongs
To the conqueror

You and me
We’ll all go down in history
With a sad Statue of Liberty
And a generation that didn’t agree

You and me
We’ll all go down in history
With a sad Statue of Liberty
And a generation that didn’t agree

I forgot to
I forgot to let you know that

Justified candy
Brandy for the nerves
Eloquence belongs
To the conqueror

Conquest to the lover and your love to the fire
Permanence unfolding in the absolute

Forgiveness is the
Ultimate sacrifice
Eloquence belongs
To the conqueror

You and me
We’ll all go down in history
With a sad Statue of Liberty
And a generation that didn’t agree

You and me
We’ll all go down in history
With a sad Statue of Liberty
And a generation that didn’t agree
Generation

What is in us that turns a deaf ear
To the cries of human suffering?
Suffering now
Suffering now

You and me
We’ll all go down in history
With a sad Statue of Liberty
And a generation that didn’t agree

You and me
We’ll all go down in history
With a sad Statue of Liberty
And a generation that didn’t agree
Generation

Belonging
Belonging to		   
AcordesyTabs.com © 2008 Acordes y Tablaturas para guitarra. Tabs and Chords for guitar. Aviso Legal - Contacto
El uso de este sitio está sujeto a la aceptación de los términos y condiciones (24 usuarios online)