tablaturas, partituras y acordes para guitarra
Busca por banda/artista:
 
y/o título de la canción:
A B C D E F G H I J K L M N O P Q R S T U V W X Y Z 0 1 2 3 4 5 6 7 8 9 / Top 100 tabs
Categorías
Usuarios
usuario:
Darse de alta
password:
Artistas más visitados
Publicidad
TOP acordes y tablaturas de Hereford


Estás en: Inicio > Letra H > Acordes y tablaturas de Hereford > Debiste pensar
Debiste pensar
de Hereford
Puntúa este acorde/tab:      
(1/5)
Reportar este acorde/tab
  Añadir a tus favoritos
  Imprimir
Debiste pensar que no era tan simple decirme que no

2ª Guitarra
e|---------------------------2-------------3-------------2-------------|
B|-------------2-------------3-------------3-------------3-------------|
G|-------------2-------------4-------------O-------------2-------------|
D|-------------2-------------4-------------O-------------O-------------|
A|-------------O-------------2-------------X---------------------------|
E|-----------------------------------------3---------------------------|

Yo nunca pude pensar en perder tu corazón

2ª Guitarra
e|---------------------------2-------------3-------------2-------------|
B|-------------2-------------3-------------3-------------3-------------|
G|-------------2-------------4-------------O-------------2-------------|
D|-------------2-------------4-------------O-------------O-------------|
A|-------------O-------------2-------------X---------------------------|
E|-----------------------------------------3---------------------------|

A veces es bueno pensar que está bien está bien

2ª Guitarra
e|---------------------------2-------------3-------------2-------------|
B|-------------2-------------3-------------3-------------3-------------|
G|-------------2-------------4-------------O-------------2-------------|
D|-------------2-------------4-------------O-------------O-------------|
A|-------------O-------------2-------------X---------------------------|
E|-----------------------------------------3---------------------------|

Yo quiero decirte que  si cuando amor sienta que si. Oh no...

2ª Guitarra
e|---------------------------2-------------3-------------2-------------|
B|-------------2-------------3-------------3-------------3-------------|
G|-------------2-------------4-------------O-------------2-------------|
D|-------------2-------------4-------------O-------------O-------------|
A|-------------O-------------2-------------X---------------------------|
E|-----------------------------------------3---------------------------|

e|-------------------------------------------------------3-------------|
B|-------------2---2---------2------2--2----------2------3-------------|
G|-------------2---2---------2------2--2----------2------O-------------|
D|-------------2---2---------2------2--2----------2------O-------------|
A|-------------O---O---------O------O--O----------O------X-------------|
E|---------------------3~~------------------3~~----------3-------------|

e|-------------------------------------------------------3-------------|
B|-------------2---2---------2------2--2----------2------3-------------|
G|-------------2---2---------2------2--2----------2------O-------------|
D|-------------2---2---------2------2--2----------2------O-------------|
A|-------------O---O---------O------O--O----------O------X-------------|
E|---------------------3~~------------------3~~----------3-------------|

Me echaste llorando sin dar explicación

1ª Guitarra
e|---------------------------------------------------------------------|
B|-------------5----7----X----X----7h8--8----7-------------------------|
G|-------------6----7----X----X----7----7----7-------------------------|
D|-------------7----9----X----X----7h9--9----7-----------7-------------|
A|-------------O----9----X----X------------------7h8h9-----------------|
E|---------------------------------------------------------------------|

2ª Guitarra
e|---------------------------2-------------3-------------2-------------|
B|-------------2-------------3-------------3-------------3-------------|
G|-------------2-------------4-------------O-------------2-------------|
D|-------------2-------------4-------------O-------------O-------------|
A|-------------O-------------2-------------X---------------------------|
E|-----------------------------------------3---------------------------|

De lo que sucede o lo que sucedió

1ª Guitarra
e|---------------------------------------------------------------------|
B|-----------5----7----X----X----7h8--8----7---------------------------|
G|-----------6----7----X----X----7----7----7-------7h9p7---7-----------|
D|-----------7----9----X----X----7h9--9----7---7h9-------9-------------|
A|-----------O----9----X----X------------------------------------------|
E|---------------------------------------------------------------------|

2ª Guitarra
e|---------------------------2-------------3-------------2-------------|
B|-------------2-------------3-------------3-------------3-------------|
G|-------------2-------------4-------------O-------------2-------------|
D|-------------2-------------4-------------O-------------O-------------|
A|-------------O-------------2-------------X---------------------------|
E|-----------------------------------------3---------------------------|

Y no olvides nena que tienes mi corazón

1ª Guitarra
e|---------------------------------------------------------------------|
B|-------------5----7----X----X----7h8--8----7-------------------------|
G|-------------6----7----X----X----7----7----7-------------------------|
D|-------------7----9----X----X----7h9--9----7-----------7-------------|
A|-------------O----9----X----X------------------7h8h9-----------------|
E|---------------------------------------------------------------------|

2ª Guitarra
e|---------------------------2-------------3-------------2-------------|
B|-------------2-------------3-------------3-------------3-------------|
G|-------------2-------------4-------------O-------------2-------------|
D|-------------2-------------4-------------O-------------O-------------|
A|-------------O-------------2-------------X---------------------------|
E|-----------------------------------------3---------------------------|

De frente a mi cara y junto a tu colchón

1ª Guitarra
e|---------------------------------------------------------------------|
B|-----------5----7----X----X----7h8--8----7---------------------------|
G|-----------6----7----X----X----7----7----7-------7h9p7---7-----------|
D|-----------7----9----X----X----7h9--9----7---7h9-------9-------------|
A|-----------O----9----X----X------------------------------------------|
E|---------------------------------------------------------------------|

2ª Guitarra
e|---------------------------2-------------3-------------2-------------|
B|-------------2-------------3-------------3-------------3-------------|
G|-------------2-------------4-------------O-------------2-------------|
D|-------------2-------------4-------------O-------------O-------------|
A|-------------O-------------2-------------X---------------------------|
E|-----------------------------------------3---------------------------|

e|-------------------------------------------------------3-------------|
B|-------------2---2---------2------2--2----------2------3-------------|
G|-------------2---2---------2------2--2----------2------O-------------|
D|-------------2---2---------2------2--2----------2------O-------------|
A|-------------O---O---------O------O--O----------O------X-------------|
E|---------------------3~~------------------3~~----------3-------------|

e|-------------------------------------------------------3-------------|
B|-------------2---2---------2------2--2----------2------3-------------|
G|-------------2---2---------2------2--2----------2------O-------------|
D|-------------2---2---------2------2--2----------2------O-------------|
A|-------------O---O---------O------O--O----------O------X-------------|
E|---------------------3~~------------------3~~----------3-------------|

e|-------------------------------------------------------3-------------|
B|-------------2---2---------2------2--2----------2------3-------------|
G|-------------2---2---------2------2--2----------2------O-------------|
D|-------------2---2---------2------2--2----------2------O-------------|
A|-------------O---O---------O------O--O----------O------X-------------|
E|---------------------3~~------------------3~~----------3-------------|

e|-------------------------------------------------------3-------------|
B|-------------2---2---------2------2--2----------2------3-------------|
G|-------------2---2---------2------2--2----------2------O-------------|
D|-------------2---2---------2------2--2----------2------O-------------|
A|-------------O---O---------O------O--O----------O------X-------------|
E|---------------------3~~------------------3~~----------3-------------|

SOLO:

e|--------1O-----------------------------------------------------------|
B|------------1O--13(15)--13--1O--13--12(13)12--1O---------------------|
G|--9/11-----------------------------------------------------------1O--|
D|---------------------------------------------------------1O----------|
A|--------------------------------------------------1O/12------12------|
E|---------------------------------------------------------------------|

e|---------------------------1O-----1O---------------------------------|
B|-------------------1O------1Oh12--1O--1O-----------------------------|
G|-------7-----9/11------11--------------9h11p9/7--7--7----7-----------|
D|--7h9-----9--------------------------------------9--7h9--7-------7h9-|
A|------------------------------------------------------------8h9------|
E|---------------------------------------------------------------------|

e|-----------1O------13(15)--13(15)--13(15)--(15)--13--1O--13--12(14)--|
B|---------------1O----------------------------------------------------|
G|--7--9/11------------------------------------------------------------|
D|---------------------------------------------------------------------|
A|---------------------------------------------------------------------|
E|---------------------------------------------------------------------|

e|--12--1O----------1O--1O---------1O----------1O-----------------1O---|
B|----------13(15)----------13p1O------13(15)------13p1O---------------|
G|--------------------------------------------------------12(14)-------|
D|---------------------------------------------------------------------|
A|---------------------------------------------------------------------|
E|---------------------------------------------------------------------|

e|---------------------------------------------------------------------|
B|--------------------------------13---------15--17--17(19)17p15--17---|
G|--12p1O------12------1O--12/14------14/16----------------------------|
D|---------12------12--------------------------------------------------|
A|---------------------------------------------------------------------|
E|---------------------------------------------------------------------|

e|----------17---------------------------------------------------------|
B|------15------17(19)~~~~---------------------------------------------|
G|--16-----------------------------------------------------------------|
D|---------------------------------------------------------------------|
A|---------------------------------------------------------------------|
E|---------------------------------------------------------------------|

e|-------------------------------------------------------3-------------|
B|-------------2---2---------2------2--2----------2------3-------------|
G|-------------2---2---------2------2--2----------2------O-------------|
D|-------------2---2---------2------2--2----------2------O-------------|
A|-------------O---O---------O------O--O----------O------X-------------|
E|---------------------3~~------------------3~~----------3-------------|

e|-------------------------------------------------------3-------------|
B|-------------2---2---------2------2--2----------2------3-------------|
G|-------------2---2---------2------2--2----------2------O-------------|
D|-------------2---2---------2------2--2----------2------O-------------|
A|-------------O---O---------O------O--O----------O------X-------------|
E|---------------------3~~------------------3~~----------3-------------|

Debiste pensar que no era tan simple decirme que no

1ª Guitarra
e|---------------------------------------------------------------------|
B|-------------5----7----X----X----7h8--8----7-------------------------|
G|-------------6----7----X----X----7----7----7-------------------------|
D|-------------7----9----X----X----7h9--9----7-----------7-------------|
A|-------------O----9----X----X------------------7h8h9-----------------|
E|---------------------------------------------------------------------|

2ª Guitarra
e|---------------------------2-------------3-------------2-------------|
B|-------------2-------------3-------------3-------------3-------------|
G|-------------2-------------4-------------O-------------2-------------|
D|-------------2-------------4-------------O-------------O-------------|
A|-------------O-------------2-------------X---------------------------|
E|-----------------------------------------3---------------------------|

Yo nunca pude pensar en perder tu corazón

1ª Guitarra
e|---------------------------------------------------------------------|
B|-----------5----7----X----X----7h8--8----7---------------------------|
G|-----------6----7----X----X----7----7----7-------7h9p7---7-----------|
D|-----------7----9----X----X----7h9--9----7---7h9-------9-------------|
A|-----------O----9----X----X------------------------------------------|
E|---------------------------------------------------------------------|

2ª Guitarra
e|---------------------------2-------------3-------------2-------------|
B|-------------2-------------3-------------3-------------3-------------|
G|-------------2-------------4-------------O-------------2-------------|
D|-------------2-------------4-------------O-------------O-------------|
A|-------------O-------------2-------------X---------------------------|
E|-----------------------------------------3---------------------------|

A veces es bueno pensar que está bien está bien

1ª Guitarra
e|---------------------------------------------------------------------|
B|-------------5----7----X----X----7h8--8----7-------------------------|
G|-------------6----7----X----X----7----7----7-------------------------|
D|-------------7----9----X----X----7h9--9----7-----------7-------------|
A|-------------O----9----X----X------------------7h8h9-----------------|
E|---------------------------------------------------------------------|

2ª Guitarra
e|---------------------------2-------------3-------------2-------------|
B|-------------2-------------3-------------3-------------3-------------|
G|-------------2-------------4-------------O-------------2-------------|
D|-------------2-------------4-------------O-------------O-------------|
A|-------------O-------------2-------------X---------------------------|
E|-----------------------------------------3---------------------------|

Yo quiero decirte que  si cuando amor sienta que si. Oh no...

1ª Guitarra
e|---------------------------------------------------------------------|
B|-----------5----7----X----X----7h8--8----7---------------------------|
G|-----------6----7----X----X----7----7----7-------7h9p7---7-----------|
D|-----------7----9----X----X----7h9--9----7---7h9-------9-------------|
A|-----------O----9----X----X------------------------------------------|
E|---------------------------------------------------------------------|

2ª Guitarra
e|---------------------------2-------------3-------------2-------------|
B|-------------2-------------3-------------3-------------3-------------|
G|-------------2-------------4-------------O-------------2-------------|
D|-------------2-------------4-------------O-------------O-------------|
A|-------------O-------------2-------------X---------------------------|
E|-----------------------------------------3---------------------------|

e|-------------------------------------------------------3-------------|
B|-------------2---2---------2------2--2----------2------3-------------|
G|-------------2---2---------2------2--2----------2------O-------------|
D|-------------2---2---------2------2--2----------2------O-------------|
A|-------------O---O---------O------O--O----------O------X-------------|
E|---------------------3~~------------------3~~----------3-------------|

e|-------------------------------------------------------3-------------|
B|-------------2---2---------2------2--2----------2------3-------------|
G|-------------2---2---------2------2--2----------2------O-------------|
D|-------------2---2---------2------2--2----------2------O-------------|
A|-------------O---O---------O------O--O----------O------X-------------|
E|---------------------3~~------------------3~~----------3-------------|

e|-------------------------------------------------------3-------------|
B|-------------2---2---------2------2--2----------2------3-------------|
G|-------------2---2---------2------2--2----------2------O-------------|
D|-------------2---2---------2------2--2----------2------O-------------|
A|-------------O---O---------O------O--O----------O------X-------------|
E|---------------------3~~------------------3~~----------3-------------|

e|-------------------------------------------------------3-------------|
B|-------------2---2---------2------2--2----------2------3-------------|
G|-------------2---2---------2------2--2----------2------O-------------|
D|-------------2---2---------2------2--2----------2------O-------------|
A|-------------O---O---------O------O--O----------O------X-------------|
E|---------------------3~~------------------3~~----------3-------------|		   
AcordesyTabs.com © 2008 Acordes y Tablaturas para guitarra. Tabs and Chords for guitar. Aviso Legal - Contacto
El uso de este sitio está sujeto a la aceptación de los términos y condiciones (19 usuarios online)