tablaturas, partituras y acordes para guitarra
Busca por banda/artista:
 
y/o título de la canción:
A B C D E F G H I J K L M N O P Q R S T U V W X Y Z 0 1 2 3 4 5 6 7 8 9 / Top 100 tabs
Categorías
Usuarios
usuario:
Darse de alta
password:
Artistas más visitados
Publicidad
TOP acordes y tablaturas de Hereford


Estás en: Inicio > Letra H > Acordes y tablaturas de Hereford > El tiempo te va a condenar
El tiempo te va a condenar
de Hereford
Puntúa este acorde/tab:      
(0.5/5)
Reportar este acorde/tab
  Añadir a tus favoritos
  Imprimir
e|-----------------------------------------------------------------|
B|--1O------1O-----------------------------------------------------|
G|---9(11)---9(11)9p7-----7h9(9.5)9p7-----7--9---------------------|
D|---------------------9---------------9--------8--7(8)7-----------|
A|-----------------------------------------------------------------|
D|-----------------------------------------------------------------|

e|-----------------------------------------------------------------|
B|--------8--1O--1O(11)1O--8---------------------------------------|
G|------x---------------------1O--9(1O)9--7------------------------|
D|----x------------------------------------------------------------|
A|--x--------------------------------------------------------------|
D|-----------------------------------------------------------------|

e|-----------------------------------------------------------------|
B|--1O------1O-----------------------------------------------------|
G|---9(11)---9(11)9p7-----7h9(9.5)9p7-----7--9---------------------|
D|---------------------9---------------9--------8--7(8)7-----------|
A|-----------------------------------------------------------------|
D|-----------------------------------------------------------------|

e|-----------------------------------------------------------------|
B|------------------------------3----------------------------------|
G|------------------------------2----------------------------------|
D|--5(7)5--3(5)3--2(3)2(3)2(3)--O----------------------------------|
A|------------------------------O----------------------------------|
D|------------------------------O----------------------------------|

Preguntaste todo lo que quisistes
Aunque sabias que iba a pasar
No escuchaste a nadie

e|-----------------------------------------------------------------|
B|--3--------------------------------------------------------------|
G|--2--------------------------------------------------------------|
D|--O--------------------------------------------------------------|
A|--O--------------------------------------------------------------|
D|--O--------------------------------------------------------------|

fuiste derecho pero a hacer todo mal


Fue más fácil vivir con la ilusión de que algo te da respuestas

e|-----------------------------------------2h3p2-------------------|
B|-----------1-----------1-----------1------------3----------------|
G|--------O-----------O-----------O------------------2-------------|
D|-----2-----------O-----------O--------O--------------------------|
A|--3-----------2-----------1--------------------------------------|
D|-----------------------------------------------------------------|

Fue más fácil llenarte el corazón viviendo de falsas promesas

e|-----------------------------------------------------------------|
B|-----------1-----------1-----------1--3--------------------------|
G|--------O-----------O-----------O-----2--------------------------|
D|-----2-----------O-----------O--------O--------------------------|
A|--3-----------2-----------1--------------------------------------|
D|-----------------------------------------------------------------|

e|--------------------------------2--3-----------------------------|
B|-----------------------------------2-----------------------------|
G|-----------------------------2-----2-----------------------------|
D|--O--2--O--2--3--5--7--5--4--------2-----------------------------|
A|--O--2--O--2--3--5-----------------O-----------------------------|
D|--O--2--O--2--3--5-----------------------------------------------|

Nunca hicistes nada para que cambien cosas que ayer pudistes cambiar

e|--1O--12--1O---9--1O--6--5--3--5--3--1--O------------------------|
B|--1O----------1O--1O--8--7--3--------3--3------------------------|
G|--11-----------9--11--7--7--3--------2--O------------------------|
D|--12----------11--12--8--7--5--------3--2------------------------|
A|-----------------------------------------------------------------|
D|-----------------------------------------------------------------|

Estuvistes cerca de descifrar cual era la razón

e|--1O--12--1O---9---1O--12--1O----6--5--3--5--3--1--O-------------|
B|--1O----------1O---1O------------8--7--3--------3--3-------------|
G|--11-----------9---11------------7--7--3--------2--O-------------|
D|--12----------11---12------------8--7--5--------3--2-------------|
A|-----------------------------------------------------------------|
D|-----------------------------------------------------------------|

No me digas que hay tiempo para ver la vida no va a esperarte

e|-----------------------------------------2h3p2-------------------|
B|-----------1-----------1-----------1------------3----------------|
G|--------O-----------O-----------O------------------2-------------|
D|-----2-----------O-----------O--------O--------------------------|
A|--3-----------2-----------1--------------------------------------|
D|-----------------------------------------------------------------|

No te engañes con oro ni con luz el brillo puede cegarte

e|-----------------------------------------------------------------|
B|-----------1-----------1-----------1--3--------------------------|
G|--------O-----------O-----------O-----2--------------------------|
D|-----2-----------O-----------O--------O--------------------------|
A|--3-----------2-----------1--------------------------------------|
D|-----------------------------------------------------------------|

Sangre de mi sangre te espero

e|-----------------------------------------------------------------|
B|-----------------------------------------------------------------|
G|-----------------------------------------------------------------|
D|-O--2--O--2--3--5--5/7-7-7-7--5/7-7-7-7--5/7-7-7-7--5/7-7-7-7----|
A|-O--2--O--2--3--5--5/7-7-7-7--5/7-7-7-7--5/7-7-7-7--5/7-7-7-7----|
D|-O--2--O--2--3--5--5/7-7-7-7--5/7-7-7-7--5/7-7-7-7--5/7-7-7-7----|

Si rechazas tu decision, el tiempo te va a condenar

e|-----------5-----------------------------------------------------|
B|--------------6--------------------------------------------------|
G|-----------------7-----------------------------------------------|
D|--8--5--O-----------5--2--7--7--7--7--7--------------------------|
A|--8--5--O-----------5--2--7--7--7--7--7--------------------------|
E|--8--5--O-----------5--2--7--7--7--7--7--------------------------|

No le pidas perdón a Dios, que ya es tarde

e|-----------------------------------------------------------------|
B|-----------------------------------------------------------------|
G|-----------------------------------------------------------------|
D|---8---5---3---1O---7--7--7--7--7--7-----------------------------|
A|---8---5---3---1O---7--7--7--7--7--7-----------------------------|
E|---8---5---3---1O---7--7--7--7--7--7-----------------------------|

e|--1O--12--1O---9--1O--6--5--3--5--3--1--O------------------------|
B|--1O----------1O--1O--8--7--3--------3--3------------------------|
G|--11-----------9--11--7--7--3--------2--O------------------------|
D|--12----------11--12--8--7--5--------3--2------------------------|
A|-----------------------------------------------------------------|
D|-----------------------------------------------------------------|

e|--1O--12--1O---9----------1O--6--5--3--5--3--1--O----------------|
B|--1O----------1O--12--1O--1O--8--7--3--------3--3----------------|
G|--11-----------9----------11--7--7--3--------2--O----------------|
D|--12----------11----------12--8--7--5--------3--2----------------|
A|-----------------------------------------------------------------|
D|-----------------------------------------------------------------|

SOLO
                          con wah-wah
e|-----------------------------------------------------8-----------|
B|--12(14)--------------------------------------8--1O-----11--1O---|
G|----------12--1O--9--12--1O--9h1Op9p7--9--1O---------------------|
D|-----------------------------------------------------------------|
A|-----------------------------------------------------------------|
D|-----------------------------------------------------------------|
                          con wah-wah
e|------------------------------------------1O--12--(13)12---------|
B|------1O--------------------------13(15)-------------------------|
G|--12------12(14)--12--12(14)--1O---------------------------------|
D|-----------------------------------------------------------------|
A|-----------------------------------------------------------------|
D|-----------------------------------------------------------------|
                          con wah-wah
e|--(13)12--12(13)--(13)12p1O--13(15)--13--1O------1O--------------|
B|---------------------------------------------13------13(15)------|
G|-----------------------------------------------------------------|
D|-----------------------------------------------------------------|
A|-----------------------------------------------------------------|
D|-----------------------------------------------------------------|
                          con wah-wah
e|--1O--12-(13)12p1O--13(15)--15(17)15--(17)15--15(17)-------------|
B|-----------------------------------------------------------------|
G|-----------------------------------------------------------------|
D|-----------------------------------------------------------------|
A|-----------------------------------------------------------------|
D|-----------------------------------------------------------------|
                          con wah-wah
e|--2O(22)2O--13--15--13(15)13--------------13---------------------|
B|------------------------------15------15------15-----------------|
G|----------------------------------14-----------------------------|
D|-----------------------------------------------------------------|
A|-----------------------------------------------------------------|
D|-----------------------------------------------------------------|

Si rechazas tu decision, el tiempo te va a condenar

e|-----------5-----------------------------------------------------|
B|--------------6--------------------------------------------------|
G|-----------------7-----------------------------------------------|
D|--8--5--O-----------5--2--7--7--7--7--7--------------------------|
A|--8--5--O-----------5--2--7--7--7--7--7--------------------------|
E|--8--5--O-----------5--2--7--7--7--7--7--------------------------|

                          con wah-wah
e|-----------------------------------------------------------------|
B|-----------------------------------------------------------------|
G|--12(14)12--1O--------------1O-----------------------------------|
D|----------------12------12------12-------------------------------|
A|--------------------12-------------------------------------------|
D|-----------------------------------------------------------------|

                         con wah-wah
e|-----------------------------------------------------------------|
B|--12(14)--1O--8---------8----------------------------------------|
G|-----------------1O--9-----9--1O---------------------------------|
D|-----------------------------------------------------------------|
A|-----------------------------------------------------------------|
D|-----------------------------------------------------------------|

No le pidas perdón a Dios, que ya es tarde

e|-----------------------------------------------------------------|
B|-----------------------------------------------------------------|
G|-----------------------------------------------------------------|
D|---8---5---3---1O---7--7--7--7--7--7-----------------------------|
A|---8---5---3---1O---7--7--7--7--7--7-----------------------------|
E|---8---5---3---1O---7--7--7--7--7--7-----------------------------|


e|--1O----9---1O----6----5----3--5--3----1----O--------------------|
B|--1O---1O---1O----8----7----3----------3----3------3-------------|
G|--11----9---11----7----7----3----------2----O------2-------------|
D|--12---11---12----8----7----5----------3----2------O-------------|
A|---------------------------------------------------O-------------|
D|---------------------------------------------------O-------------|		   
AcordesyTabs.com © 2008 Acordes y Tablaturas para guitarra. Tabs and Chords for guitar. Aviso Legal - Contacto
El uso de este sitio está sujeto a la aceptación de los términos y condiciones (23 usuarios online)