tablaturas, partituras y acordes para guitarra
Busca por banda/artista:
 
y/o título de la canción:
A B C D E F G H I J K L M N O P Q R S T U V W X Y Z 0 1 2 3 4 5 6 7 8 9 / Top 100 tabs
Categorías
Usuarios
usuario:
Darse de alta
password:
Artistas más visitados
Publicidad
TOP acordes y tablaturas de Hereford


Estás en: Inicio > Letra H > Acordes y tablaturas de Hereford > Músicas tibias
Músicas tibias
de Hereford
Puntúa este acorde/tab:      
(0.4/5)
Reportar este acorde/tab
  Añadir a tus favoritos
  Imprimir
Esta completa, con solos y todo, espero que la disfruten!!

2a. Viola
e|------------------O----O-----------------O----O------------------|
A|------------------O----O-----------------O----O------------------|
G|------------------9----9-----------------9----9------------------|
D|------------------9----6-----------------9----6------------------|
A|------------------7----7-----------------7----7------------------|
E|-----------------------------------------------------------------|

1a. Viola (con wah-wah)
e|-----------------------------------------------------------------|
B|---------1O----------9---------12---------1O-----------9---------|
G|-----------------------------------------------------------------|
D|---------11----------9---------12---------11-----------9---------|
A|-----------------------------------------------------------------|
E|----------O----------O----------O----------O-----------O---------|

Sere como un hombre escrito en la arena

2a. Viola
e|------------------O----O-----------------O----O------------------|
A|------------------O----O-----------------O----O------------------|
G|------------------9----9-----------------9----9------------------|
D|------------------9----6-----------------9----6------------------|
A|------------------7----7-----------------7----7------------------|
E|-----------------------------------------------------------------|

1a. Viola (con wah-wah)
e|-----------------------------------------------------------------|
B|---------1O----------9---------12---------1O-----------9---------|
G|-----------------------------------------------------------------|
D|---------11----------9---------12---------11-----------9---------|
A|-----------------------------------------------------------------|
E|----------O----------O----------O----------O-----------O---------|

Se va con el viento para hacer historia

2a. Viola
e|------------------O----O-----------------O----O------------------|
A|------------------O----O-----------------O----O------------------|
G|------------------9----9-----------------9----9------------------|
D|------------------9----6-----------------9----6------------------|
A|------------------7----7-----------------7----7------------------|
E|-----------------------------------------------------------------|

1a. Viola (con wah-wah)
e|-----------------------------------------------------------------|
B|---------1O----------9---------12---------1O-----------9---------|
G|-----------------------------------------------------------------|
D|---------11----------9---------12---------11-----------9---------|
A|-----------------------------------------------------------------|
E|----------O----------O----------O----------O-----------O---------|

Quedando a la espera

e|----2------------------------------------------------------------|
B|----3------------------------------------------------------------|
G|----2------------------------------------------------------------|
D|----O------------------------------------------------------------|
A|-----------------------------------------------------------------|
E|-----------------------------------------------------------------|

De músicas tibias

e|--O---O-------------------------O---O----------------------------|
B|--O---O-------------------------O---O----------------------------|
G|--1---1-------------------------1---1----------------------------|
D|--2---2------------------6h7----2---2------------------7p6-------|
A|--2---2-----------5h7-----------2---2-----------5h7-----------7--|
E|--O---O----5/7------------------O---O----5/7---------------------|

e|--O---O-------------------------O---O----------------------------|
B|--O---O-------------------------O---O----------------------------|
G|--1---1-------------------------1---1----------------------------|
D|--2---2------------------6h7----2---2------------------7p6-------|
A|--2---2-----------5h7-----------2---2-----------5h7-----------7--|
E|--O---O----5/7------------------O---O----5/7---------------------|

Seré como un angel

2a. Viola
e|-------O------O------------------O------O------------------------|
A|-------O------O------------------O------O------------------------|
G|-------9------9------------------9------9------------------------|
D|-------9------6------------------9------6------------------------|
A|-------7------7------------------7------7------------------------|
E|-----------------------------------------------------------------|

1a. Viola
e|---O----O---------------------O----O-----------------------------|
B|---O----O---------------------O----O-----------------------------|
G|---1----1------------9--------1----1------------9----------------|
D|---2----2------------9--------2----2------------9----------------|
A|---2----2------------9h11-----2----2------------9h11----11h12----|
E|---O----O----9/12-------------O----O----9/12---------------------|

Despierto en tus noches

2a. Viola
e|-------O------O------------------O------O------------------------|
A|-------O------O------------------O------O------------------------|
G|-------9------9------------------9------9------------------------|
D|-------9------6------------------9------6------------------------|
A|-------7------7------------------7------7------------------------|
E|-----------------------------------------------------------------|

1a. Viola
e|---O----O---------------------O----O-----------------------------|
B|---O----O---------------------O----O-----------------------------|
G|---1----1------------9--------1----1------------9----------------|
D|---2----2------------9--------2----2------------9----------------|
A|---2----2------------9h11-----2----2------------9h11----11h12----|
E|---O----O----9/12-------------O----O----9/12---------------------|

Para no dejarte

2a. Viola
e|-------O------O------------------O------O------------------------|
A|-------O------O------------------O------O------------------------|
G|-------9------9------------------9------9------------------------|
D|-------9------6------------------9------6------------------------|
A|-------7------7------------------7------7------------------------|
E|-----------------------------------------------------------------|

1a. Viola
e|---O----O---------------------O----O-----------------------------|
B|---O----O---------------------O----O-----------------------------|
G|---1----1------------9--------1----1------------9----------------|
D|---2----2------------9--------2----2------------9----------------|
A|---2----2------------9h11-----2----2------------9h11----11h12----|
E|---O----O----9/12-------------O----O----9/12---------------------|

Caer al abismo

2a. Viola
e|-------O------O------------------O------O------------------------|
A|-------O------O------------------O------O------------------------|
G|-------9------9------------------9------9------------------------|
D|-------9------6------------------9------6------------------------|
A|-------7------7------------------7------7------------------------|
E|-----------------------------------------------------------------|

1a. Viola
e|---O----O---------------------O----O-----------------------------|
B|---O----O---------------------O----O-----------------------------|
G|---1----1------------9--------1----1------------9----------------|
D|---2----2------------9--------2----2------------9----------------|
A|---2----2------------9h11-----2----2------------9h11----11h12----|
E|---O----O----9/12-------------O----O----9/12---------------------|

Quedando a la espera

e|-----------3---3---3---------------------------------------------|
B|---3---3---3---3---3---------------------------------------------|
G|---2---2---2---2---2---------------------------------------------|
D|---O---O---O---O---O---------------------------------------------|
A|-----------------------------------------------------------------|
E|-----------------------------------------------------------------|

De músicas tibias

e|--O---O-------------------------O---O----------------------------|
B|--O---O-------------------------O---O----------------------------|
G|--1---1-------------------------1---1----------------------------|
D|--2---2------------------6h7----2---2----------------------------|
A|--2---2-----------5h7-----------2---2-----------5h7--------------|
E|--O---O----5/7------------------O---O----5/7---------------------|

Para recorrerte

e|-----------------------------------------------------------------|
B|--7---------------------------7h8--8--7--------------------------|
G|--7-------------7----7--------7----7--7-------7------------------|
D|--7-------7-----7h9--7--------7h9--9--7-------7------------------|
A|--5--7/9-----9----------7--9-------------7h9---------------------|
E|-----------------------------------------------------------------|

Por lo más profundo de ti

e|--O---O-------------------------O---O----------------------------|
B|--O---O-------------------------O---O----------------------------|
G|--1---1-------------------------1---1----------------------------|
D|--2---2------------------6h7----2---2------------------7p6-------|
A|--2---2-----------5h7-----------2---2-----------5h7-----------7--|
E|--O---O----5/7------------------O---O----5/7---------------------|

e|--O---O-------------------------O---O----------------------------|
B|--O---O-------------------------O---O----------------------------|
G|--1---1-------------------------1---1----------------------------|
D|--2---2------------------6h7----2---2----------------------------|
A|--2---2-----------5h7-----------2---2-----------5h7--------------|
E|--O---O----5/7------------------O---O----5/7---------------------|

Seré como un hombre

2a. Viola
e|-------O------O------------------O------O------------------------|
A|-------O------O------------------O------O------------------------|
G|-------9------9------------------9------9------------------------|
D|-------9------6------------------9------6------------------------|
A|-------7------7------------------7------7------------------------|
E|-----------------------------------------------------------------|

1a. Viola
e|---O----O---------------------O----O-----------------------------|
B|---O----O---------------------O----O-----------------------------|
G|---1----1------------9--------1----1------------9----------------|
D|---2----2------------9--------2----2------------9----------------|
A|---2----2------------9h11-----2----2------------9h11----11h12----|
E|---O----O----9/12-------------O----O----9/12---------------------|



Escrito en la arena

2a. Viola
e|-------O------O------------------O------O------------------------|
A|-------O------O------------------O------O------------------------|
G|-------9------9------------------9------9------------------------|
D|-------9------6------------------9------6------------------------|
A|-------7------7------------------7------7------------------------|
E|-----------------------------------------------------------------|

1a. Viola
e|---O----O---------------------O----O-----------------------------|
B|---O----O---------------------O----O-----------------------------|
G|---1----1------------9--------1----1------------9----------------|
D|---2----2------------9--------2----2------------9----------------|
A|---2----2------------9h11-----2----2------------9h11----11h12----|
E|---O----O----9/12-------------O----O----9/12---------------------|

Se va con el viento

2a. Viola
e|-------O------O------------------O------O------------------------|
A|-------O------O------------------O------O------------------------|
G|-------9------9------------------9------9------------------------|
D|-------9------6------------------9------6------------------------|
A|-------7------7------------------7------7------------------------|
E|-----------------------------------------------------------------|

1a. Viola
e|---O----O---------------------O----O-----------------------------|
B|---O----O---------------------O----O-----------------------------|
G|---1----1------------9--------1----1------------9----------------|
D|---2----2------------9--------2----2------------9----------------|
A|---2----2------------9h11-----2----2------------9h11----11h12----|
E|---O----O----9/12-------------O----O----9/12---------------------|

Para hacer historia

2a. Viola
e|-------O------O------------------O------O------------------------|
A|-------O------O------------------O------O------------------------|
G|-------9------9------------------9------9------------------------|
D|-------9------6------------------9------6------------------------|
A|-------7------7------------------7------7------------------------|
E|-----------------------------------------------------------------|

1a. Viola
e|---O----O---------------------O----O-----------------------------|
B|---O----O---------------------O----O-----------------------------|
G|---1----1------------9--------1----1------------9----------------|
D|---2----2------------9--------2----2------------9----------------|
A|---2----2------------9h11-----2----2------------9h11----11h12----|
E|---O----O----9/12-------------O----O----9/12---------------------|

Quedando a la espera

e|-----------3---3---3---------------------------------------------|
B|---3---3---3---3---3---------------------------------------------|
G|---2---2---2---2---2---------------------------------------------|
D|---O---O---O---O---O---------------------------------------------|
A|-----------------------------------------------------------------|
E|-----------------------------------------------------------------|

De músicas tibias

e|--O---O-------------------------O---O----------------------------|
B|--O---O-------------------------O---O----------------------------|
G|--1---1-------------------------1---1----------------------------|
D|--2---2------------------6h7----2---2----------------------------|
A|--2---2-----------5h7-----------2---2-----------5h7--------------|
E|--O---O----5/7------------------O---O----5/7---------------------|

Para recorrerte

e|-----------------------------------------------------------------|
B|--7---------------------------7h8--8--7--------------------------|
G|--7-------------7----7--------7----7--7-------7------------------|
D|--7-------7-----7h9--7--------7h9--9--7-------7------------------|
A|--5--7/9-----9----------7--9-------------7h9---------------------|
E|-----------------------------------------------------------------|

En lo más profundo de ti

SOLO:

e|-----------------------------------------------------------------|
B|-9(1O)9(1O)9--9(1O)9(1O)9--9(1O)9(1O)9--9(1O)9(1O)9--9(1O)9(1O)9-|
G|-----------------------------------------------------------------|
D|---------------------con-wah-wah---------------------------------|
A|-----------------------------------------------------------------|
E|-----------------------------------------------------------------|

e|-----------------------------------------------------------------|
B|----9(1O)9-------------1O--12------------------------------------|
G|------------11(13)~~~-------------11(13)11--9------9-------------|
D|-----------------------------------------------11----------------|
A|---------------------con-wah-wah---------------------------------|
E|-----------------------------------------------------------------|

e|-----------------------------------------------------------------|
B|-9(1O)9(1O)9--9(1O)9(1O)9--9(1O)9(1O)9--9(1O)9(1O)9--9(1O)9(1O)9-|
G|-----------------------------------------------------------------|
D|---------------------con-wah-wah---------------------------------|
A|-----------------------------------------------------------------|
E|-----------------------------------------------------------------|

e|------------------------------12---------------------------------|
B|----12(14)----1O--12---------------------------------------------|
G|----------------------11(13)------11(13)11--9------9-------------|
D|-----------------------------------------------11----------------|
A|---------------------con-wah-wah---------------------------------|
E|-----------------------------------------------------------------|

e|-----------------------------------------------------------------|
B|-12(14)12(14)12(14)12--12(14)12(14)12(14)12-12(14)12(14)12(14)12-|
G|-----------------------------------------------------------------|
D|-----------------------------------------------------------------|
A|----------------------con-wah-wah--------------------------------|
E|-----------------------------------------------------------------|

e|-----------------------------------------------------------------|
B|------12(14)12(14)12(14)12--12(14)12(14)12(14)12----15(17)~~~----|
G|-----------------------------------------------------------------|
D|-----------------------------------------------------------------|
A|----------------------con-wah-wah--------------------------------|
E|-----------------------------------------------------------------|

e|-----------------------------------------------------------------|
B|-12--15--14(15)--14--12--14--------------------------------------|
G|-----------------------------12----------------------------------|
D|---------------------------------14------14------14------14--14--|
A|---------------------con-wah-wah-----14------13------12------11--|
E|--------------------------------------------------------------O--|

e|--1Oh12p1OpOh1Oh12p1OpOh1Oh12p1OpOh9h1Op9pOh9h1Op9pOh7h9p7pOh7---|
B|-----------------------------------------------------------------|
G|-----------------------------------------------------------------|
D|-----------------------------------------------------------------|
A|----------------------con-wah-wah--------------------------------|
E|-----------------------------------------------------------------|

e|--h9p7pOh5h7p5pOh5h7p5pOh4h5p4pOh4h5p4pOh2h4p2pOh2h4p2pOh2h4p2---|
B|-----------------------------------------------------------------|
G|-----------------------------------------------------------------|
D|-----------------------------------------------------------------|
A|----------------------con-wah-wah--------------------------------|
E|-----------------------------------------------------------------|

e|--pOh2h4p2pOh2h4p2pOh2h4p2pO-------------------------------------|
B|-----------------------------------------------------------------|
G|-----------------------------------------------------------------|
D|-----------------------------------------------------------------|
A|----------------------con-wah-wah--------------------------------|
E|-----------------------------------------------------------------|

e|--1Oh12p1OpOh1Oh12p1OpOh1Oh12p1OpOh9h1Op9pOh9h1Op9pOh7h9p7pOh7---|
B|-----------------------------------------------------------------|
G|-----------------------------------------------------------------|
D|-----------------------------------------------------------------|
A|----------------------con-wah-wah--------------------------------|
E|-----------------------------------------------------------------|

e|--h9p7pOh5h7p5pOh5h7p5pOh4h5p4pOh4h5p4pOh2h4p2pOh2h4p2pOh2h4p2---|
B|-----------------------------------------------------------------|
G|-----------------------------------------------------------------|
D|-----------------------------------------------------------------|
A|----------------------con-wah-wah--------------------------------|
E|-----------------------------------------------------------------|

e|--pOh2h4p2pOh2h4p2pOh2h4p2pO-------------------------------------|
B|-----------------------------------------------------------------|
G|-----------------------------------------------------------------|
D|-----------------------------------------------------------------|
A|----------------------con-wah-wah--------------------------------|
E|-----------------------------------------------------------------|

e|-----------------------------------------------------------------|
B|-9(1O)9(1O)9--9(1O)9(1O)9--9(1O)9(1O)9--9(1O)9(1O)9--9(1O)9(1O)9-|
G|-----------------------------------------------------------------|
D|---------------------con-wah-wah---------------------------------|
A|-----------------------------------------------------------------|
E|-----------------------------------------------------------------|

e|-----------------------------------------------------------------|
B|----9(1O)9-------------------------------------------------------|
G|--------------------------------------7----7----7--7-------------|
D|--------------------------------------7----7----7--7-------------|
A|---------------------con-wah-wah------5----5----5--5-------------|
E|-----------------------------------------------------------------|

e|-----------------------------------------------------------------|
B|-------12(14)--1O--12--------------------------------------------|
G|-----------------------11(13)11----9------9----------------------|
D|--------------------------------------11-------------------------|
A|---------------------con-wah-wah---------------------------------|
E|---O-------------------------------------------------------------|

e|-----------------------------------------------------------------|
B|-12(14)12(14)12(14)12--12(14)12(14)12(14)12-12(14)12(14)12(14)12-|
G|-----------------------------------------------------------------|
D|-----------------------------------------------------------------|
A|----------------------con-wah-wah--------------------------------|
E|-----------------------------------------------------------------|

e|-----------------------------------------------------------------|
B|------12(14)12(14)12(14)12--12(14)12(14)12(14)12----15(17)~~~----|
G|-----------------------------------------------------------------|
D|-----------------------------------------------------------------|
A|----------------------con-wah-wah--------------------------------|
E|-----------------------------------------------------------------|

e|-----------------------------------------------------------------|
B|-12--15--14(15)--14--12--14--------------------------------------|
G|-----------------------------12----------------------------------|
D|---------------------------------14------14------14------14--14--|
A|---------------------con-wah-wah-----14------13------12------11--|
E|--------------------------------------------------------------O--|

Seré como un angel

e|--O---O-------------------------O---O----------------------------|
B|--O---O-------------------------O---O----------------------------|
G|--1---1-------------------------1---1----------------------------|
D|--2---2------------------6h7----2---2------------------7p6-------|
A|--2---2-----------5h7-----------2---2-----------5h7-----------7--|
E|--O---O----5/7------------------O---O----5/7---------------------|

Despierto en tus noches

e|--O---O-------------------------O---O----------------------------|
B|--O---O-------------------------O---O----------------------------|
G|--1---1-------------------------1---1----------------------------|
D|--2---2------------------6h7----2---2------------------7p6-------|
A|--2---2-----------5h7-----------2---2-----------5h7-----------7--|
E|--O---O----5/7------------------O---O----5/7---------------------|

Para no dejarte

e|--O---O-------------------------O---O----------------------------|
B|--O---O-------------------------O---O----------------------------|
G|--1---1-------------------------1---1----------------------------|
D|--2---2------------------6h7----2---2------------------7p6-------|
A|--2---2-----------5h7-----------2---2-----------5h7-----------7--|
E|--O---O----5/7------------------O---O----5/7---------------------|

Caer al abismo

e|--O---O-------------------------O---O----------------------------|
B|--O---O-------------------------O---O----------------------------|
G|--1---1-------------------------1---1----------------------------|
D|--2---2------------------6h7----2---2------------------7p6-------|
A|--2---2-----------5h7-----------2---2-----------5h7-----------7--|
E|--O---O----5/7------------------O---O----5/7---------------------|

Quedando a la espera

e|-----------3---3---3---------------------------------------------|
B|---3---3---3---3---3---------------------------------------------|
G|---2---2---2---2---2---------------------------------------------|
D|---O---O---O---O---O---------------------------------------------|
A|-----------------------------------------------------------------|
E|-----------------------------------------------------------------|

De músicas tibias

e|--O---O-------------------------O---O----------------------------|
B|--O---O-------------------------O---O----------------------------|
G|--1---1-------------------------1---1----------------------------|
D|--2---2------------------6h7----2---2------------------7p6-------|
A|--2---2-----------5h7-----------2---2-----------5h7-----------7--|
E|--O---O----5/7------------------O---O----5/7---------------------|		   
AcordesyTabs.com © 2008 Acordes y Tablaturas para guitarra. Tabs and Chords for guitar. Aviso Legal - Contacto
El uso de este sitio está sujeto a la aceptación de los términos y condiciones (18 usuarios online)