tablaturas, partituras y acordes para guitarra
Busca por banda/artista:
 
y/o título de la canción:
A B C D E F G H I J K L M N O P Q R S T U V W X Y Z 0 1 2 3 4 5 6 7 8 9 / Top 100 tabs
Categorías
Usuarios
usuario:
Darse de alta
password:
Artistas más visitados
Publicidad
TOP acordes y tablaturas de El cuarteto de nos


Estás en: Inicio > Letra E > Acordes y tablaturas de El cuarteto de nos > El putón del barrio
El putón del barrio
de El cuarteto de nos
Puntúa este acorde/tab:      
(0.5/5)
Reportar este acorde/tab
  Añadir a tus favoritos
  Imprimir
ACLARACION:
E5  = 022xxx
E5' = x799XX

INTRO:
                 D5    E5'   A5     F#5   D5  E5'   A5
D) | 7-7----------------------------------------------7- | 
A) | 5-7--4p2-0-----------------------4p2-0-----------7- | 
E) | 5-5--------4--22--2h4p2--4-55--5-------4p2-22-4--5- | 


 A5
Los amigos le dicen Marita
   D5             E5
y su nombre es Rosario
 A5
Pero todos le llamamos
  D5   E5     A5
el putón del barrio
  A5
Se encamó con el de la despensa
   D5          E5
y con el comisario
  A5
y así fue que le quedó
 D5    E5     A5       E5
el putón del barrio

Mi mamá es una mujer sensible
y cariñosamente
como vive frente a casa
le dice el putón de enfrente
Se la hacia a un monaguillo
cuando iba al confesionario
rezando el Ave Maria
el putón del barrio

                     D5   E5'   A5      F#5     D5   E5'   A5    F#5       D5   E5'    A5     F#5    D5   E5    A5
D) |  | -9-9------------------------------------------------------- | -------------------------------------------------- |  | 
A) |  | -7-9---4p2-0-----------------------4p2p0------------------- | -4p2-0------------------------4p2p0--------------- |  | 
E) |  | -------------4p2-22--4p2--4-55--5---------4h55-5-7h5-7/9-9- | -------4p2-22--4p2--4-55--5---------4/5-5-5h7---5- |  | 


(SIN LAS GUITARRAS)
Le chupó la media a un director
del Banco Hipotecario
y así le salió la casa
al putón del barrio.
Le salió por tanto chaca-chaca
un cáncer al ovario
dijo en el bar el doctor
del putón del barrio

             D5
Y como no quise quedar
  E5         A5
triste y solitario
F#5         D5
yo me tuve que casar
    E5           A5
con el putón del barrio
   F#5              D5
Y lloro siempre al recordar
   E5         A5
en cada aniversario
F#5             D5
que mi esposa una vez fue
 E5         A5
el putón del barrio
D5     E5     A5
el putón del barrio (x3)


              D5   E5     A5      F#5      D5   E5   A5     F#5      D5   E5    A5       F#5    D5   E5    A5
D) |  | ----------------------------------------------------- | -------------------------------------------------7- |  | 
A) |  | -4p2-0-----------------------4p2p0------------------- | -4p2-0------------------------4p2p0--------------7- |  | 
E) |  | ------4p2-22--4p2--4-55--5---------4h5-55--7h5-7/9-9- | -------4p2-22--4p2--4-55--5---------4/5-5-5h7-7--5- |  |  		   
AcordesyTabs.com © 2008 Acordes y Tablaturas para guitarra. Tabs and Chords for guitar. Aviso Legal - Contacto
El uso de este sitio está sujeto a la aceptación de los términos y condiciones (29 usuarios online)