tablaturas, partituras y acordes para guitarra
Busca por banda/artista:
 
y/o título de la canción:
A B C D E F G H I J K L M N O P Q R S T U V W X Y Z 0 1 2 3 4 5 6 7 8 9 / Top 100 tabs
Categorías
Usuarios
usuario:
Darse de alta
password:
Artistas más visitados
Publicidad
TOP acordes y tablaturas de Evanescence


Estás en: Inicio > Letra E > Acordes y tablaturas de Evanescence > Taking over me
Taking over me
de Evanescence
Puntúa este acorde/tab:      
(0.2/5)
Reportar este acorde/tab
  Añadir a tus favoritos
  Imprimir
Piano play

e--------------------------------------------------------------------|
b--------------------------------------------------------------------|
f--------------------------------------------------------------------|
c--------------------------------------------------------------------|

Riff #1 (0:10)
e--------------------------------------------------------------------|
b--------------------------------------------------------------------|
f--------------------------------------------------------------------|
c--9-9x-9-9--9-9x--9-9x-9-9--9-9x ---5-5x--5-5--5-5x--3-3x--3-3--3-3x|

intermÈì
e--------------------------------------------------------------------|
b--------------------------------------------------------------------|
f--------------------------------------------------------------------|
c---------------------------------9-------9--------5---------3-------|

Riff #2								
e--------------------------------------------------------------------|
b--------------------------------------------------------------------|
f--------------------------------------------------------------------|
c--9-9x-9-9--9-9x--9-9x-9-9--9-9x----5-5x--5-5--5-5x--3-3x--3-3------|

Riff #3
		 					 rest
e--------------------------------------------------------------------|
b--------------------------------------------------------------------|
f--------------------------------------------------------------------|
c-9-99-79---67-5-
/5------9-99-79¡ª6-7-5-5-7-5-6/11-10-9------------|

Riff #1 X2
Riff #3 X2
But end is different, 
play fill #1

Fill #1
e-------------------------------------
b-------------------------------------
f--------------------3333333333333333-
c-5-555-xxx5-55-55-55-----------------

--------------------------------------|
----------------------------------5---|
-----------------------------------3--|
5-555-xxx5-55-55-55333333333333333----|

Piano play and chord

Riff #3 X3		   
AcordesyTabs.com © 2008 Acordes y Tablaturas para guitarra. Tabs and Chords for guitar. Aviso Legal - Contacto
El uso de este sitio está sujeto a la aceptación de los términos y condiciones (41 usuarios online)