tablaturas, partituras y acordes para guitarra
Busca por banda/artista:
 
y/o título de la canción:
A B C D E F G H I J K L M N O P Q R S T U V W X Y Z 0 1 2 3 4 5 6 7 8 9 / Top 100 tabs
Categorías
Usuarios
usuario:
Darse de alta
password:
Artistas más visitados
Publicidad
TOP acordes y tablaturas de Olivia newton-john


Estás en: Inicio > Letra O > Acordes y tablaturas de Olivia newton-john > The flower that shattered the stone
The flower that shattered the stone
de Olivia newton-john
Puntúa este acorde/tab:      
(0.2/5)
Reportar este acorde/tab
  Añadir a tus favoritos
  Imprimir
The tempo is 3/4.


Intro:
               
        Hammer-on                      Hammer-on                       Hammer-on
           ^                               ^                               ^
E-----0--0---2--0---------------|-----0--0---2--0--------------|------0--0---2--0--------------|---
B--3---------------3-----3------|--3---------------3-----3-----|----3--------------3-----3--2--|---
G---------------------0------2--|--------------------0---2-----|-2--------------------2-----2--|---
D-------------------------------|------------------------------|----------------------2--------|---
A-------------------------------|------------------------------|----------------------0--------|---
E------------3-----------2------|------------3-----------2-----|-------------0-----------------|---
                  
                                                                  /slide                           
E--2--------------------2-------|---3--------------------------|---5--------------------5------|---
B--3------3--------3------------|---3--------3-----------------|---5------5---------5----------|---
G--2-----------2----------------|---4--------------4-----------|---6-----------6---------------|---
D--0----------------------------|---0--------------------------|---0---------------------------|---
A-------------------------------|------------------------------|-------------------------------|---
E-------------------------------|------------------------------|-------------------------------|---



E--3----------------------------|---
B--3--------3-------------------|---
G--4----------------4-----------|---
D--0----------------------------|---
A-------------------------------|---
E-------------------------------|---



1st Verse:



    D                               D                               G
E--------------------2----------|---2-------3--------5----------|---7-------5-------3----------|---
B-------------3----------3------|---3-------5--------7----------|---8-------7-------5----------|---
G--------2--------2-------------|---2---------------------------|------------------------------|---
D---0---------------------------|---0-----------0------0--------|-------0-------0-------0------|---
A-------------------------------|-------------------------------|------------------------------|---
E-------------------------------|-------------------------------|------------------------------|---
     Earth    is     our            mo......ther     just           tur.....ning    a....



    D                               D/F#                            Bmin7
 
E---2---------------------2-----|-------------------2-----------|-------------------2----------|---
B---3-----3--------3------------|------------3----------3-------|------------3----------3------|---
G---2----------2----------------|--------2-------2--------------|--------2-------2-------------|---
D---0---------------------------|---4---------------------------|------------------------------|---
A-------------------------------|-------------------------------|---2--------------------------|---
E-------------------------------|-------------------------------|------------------------------|---
  ..round          with   her       trees    in     the             fo.......rest   a...nd 



    A                              A                                D


E--------------------5----------|-----------------5-------------|-------------------2----------|---
B-------------5----------5------|----------------------5--------|------------3----------3------|---
G--------6--------6-------------|----------6--------------------|--------2-------2-------------|---
D-------------------------------|------7-------7----------------|---0--------------------------|---
A-------------------------------|-------------------------------|------------------------------|---
E---5---------------------------|---5---------------------------|------------------------------|---
    roots     un.....der            ground             our          Fa.......ther    a.....



    D                                 G                             D


E---2-----3--------5------------|-----7-------5-------3---------|---2------------------2-------|---
B---3-----5--------7------------|-----8-------7-------5---------|---3-----3--------3-----------|---
G---2---------------------------|-------------------------------|---2----------2---------------|---
D---0---------0------0----------|---------0-------0-------0-----|---0--------------------------|---
A-------------------------------|-------------------------------|------------------------------|---
E-------------------------------|-------------------------------|------------------------------|---
  ..bove  us       Whose              sigh    is      the           wind



    Emin                           (passing notes)                 A
E--------------------7----------|-------------------------------|-----------------5------------|---
B------------------------8------|------5---------7--------8-----|----------5----------5--------|---
G-------------9-----------------|-------------------------------|------6-------6---------------|---
D--------9--------9-------------|------4---------5--------------|------------------------------|---
A----7--------------------------|-------------------------7-----|---0--------------------------|---
E-------------------------------|-------------------------------|------------------------------|---
     paint    us     a                 rain......bow      with......out    a......ny 



    D                Hammer-on          D              Hammer-on     
                        ^                                 ^                           
E-------------2-------0---2-----|---------------2-------0---2---|---
B-----------------3-------------|-------------------3-----------|---
G--------2----------------------|------------2------------------|---
D---0---------------------------|-------0-----------------------|---
A-------------------------------|-------------------------------|---
E-------------------------------|-------------------------------|---
    end                                                 As  the





CHORUS:                                                
  
     D/F#           Hammer-on         D/F#            Hammer-on       D/G               Hammer-on
                         ^                                ^                                ^
E--------------2-------0---2-----|--------------2-------0---2-----|--------------2-------0---2--|---
B------------------3-------------|------------------3-------------|------------------3----------|---
G---------2----------------------|---------2----------------------|---------2-------------------|---
D----4---------------------------|----4---------------------------|----5------------------------|---
A--------------------------------|--------------------------------|-----------------------------|---
E--------------------------------|--------------------------------|-----------------------------|---
     ri........ver     runs           free......ly          the        moun......tain    do..es 




     D                                D/F#             Hammer-on      Bmin7
                                                          ^
E----------------------2---------|--------------2-------0---2-----|--------------2--------------|---
B--------------3-----------3-----|------------------3-------------|------------------3-------3--|---
G---------2--------2-------------|---------2----------------------|---------2------------2------|---
D----0---------------------------|----4---------------------------|-----------------------------|---
A--------------------------------|--------------------------------|----2------------------------|---
E--------------------------------|--------------------------------|-----------------------------|---
     rise              Let me         touch     with    my             fin.......gers        and
  


     A                                A                    D/F#         G  


E---------------------5----------|--------------------------2-----|-----3-----------------------|---
B--------------5----------5------|--------------5-----------3-----|-----3----------------3------|---
G---------6--------6-------------|---------6--------6-------------|---------0--------0------0---|---
D--------------------------------|--------------------------------|--------------0--------------|---
A--------------------------------|--------------------------------|-----------------------------|---
E----5---------------------------|----5---------------------2-----|-----3-----------------------|---
     see       with   m...y           eyes                  in the      hearts   of      the  





     G                               D                                  A                   (suspend)
E--------------------------------|----------------------2---------|-----------------------------|---
B----------------------3---------|---------3--------3-------3-----|---------------3--2----------|---
G--------0---------0-------0-----|--------------2-----------------|---------2------------2------|---
D-------------0------------------|---0----------------------------|------------2------------2---|---
A--------------------------------|--------------------------------|-----0-----------------------|---
E----3---------------------------|--------------------------------|-----------------------------|---
     chil.....dren     a             pure       love    still           grows  






              D/G                    D/F#                              D/E                   D/F#


          Hammer-on                                              Hammer-on
             ^                                                       ^      
E-------0--0---2------0--------------------------|----------0------0---2-------0------------------|---
B--3-----------3-------------3-------3-----------|-------3-------------3------------3--------3----|---
G--------------------------------0----------2----|---------------------------------------0---2----|---
D------------------------------------------------|------------------------------------------------|---
A------------------------------------------------|------------------------------------------------|---
E--------------3---------------------2-----------|---------------------0---------------------2----|---
   Like a    bright   star   in      hea...ven              that      lights   our  way      home
      




                       D/G              A                     D


                 Hammer-on
                     ^
E-----------0------0---2----0-----------------------------|---2--------------------2---------|---
B-----3----------------3---------3--------------3---------|---3------3--------3--------------|---
G--2------------------------------------2-------------2---|---2-----------2------------------|---
D---------------------------------------2-----------------|---0------------------------------|---
A---------------------------------------0-----------------|----------------------------------|---
E----------------------3----------------------------------|----------------------------------|---
       Like the       flow...er  that   shatt...ered  the     stone
 



                          /slide                           
E---3------------------|---5--------------------5------|--------3-------------------|---
B---3--------3---------|---5------5---------5----------|--------3--------3----------|---
G---4--------------4---|---6-----------6---------------|--------4----------------4--|---
D---0------------------|---0---------------------------|--------0-------------------|---
A----------------------|-------------------------------|----------------------------|---
E----------------------|-------------------------------|----------------------------|---
  

2nd Verse:


A sparrow finds freedom, beholding the sun
In the infinite beauty, we're all joined in one
I reach out before me, and look to the sky
Did I hear someone whisper, did something pass by


chorus


Like a bright star in Heaven, that lights our way home
Like the flower that shattered the stone		   
AcordesyTabs.com © 2008 Acordes y Tablaturas para guitarra. Tabs and Chords for guitar. Aviso Legal - Contacto
El uso de este sitio está sujeto a la aceptación de los términos y condiciones (20 usuarios online)