tablaturas, partituras y acordes para guitarra
Busca por banda/artista:
 
y/o título de la canción:
A B C D E F G H I J K L M N O P Q R S T U V W X Y Z 0 1 2 3 4 5 6 7 8 9 / Top 100 tabs
Categorías
Usuarios
usuario:
Darse de alta
password:
Artistas más visitados
Publicidad
TOP acordes y tablaturas de Foo fighters


Estás en: Inicio > Letra F > Acordes y tablaturas de Foo fighters > Iron and stone
Iron and stone
de Foo fighters
Puntúa este acorde/tab:      
(0.5/5)
Reportar este acorde/tab
  Añadir a tus favoritos
  Imprimir
Afinação normal ebgdaE

Intro
e|-------------------------------------------------------------|
B|-------------12-------------12-------------12-------------12-|
G|-11h12p11h12----11h12p11h12----11h12p11h12----11h12p11h12----|
D|-------------------------------------------------------------|
A|-------------------------------------------------------------|
E|-------------------------------------------------------------|

e|-------------------------------------------------------------|
B|-------------11-------------11-------------11-------------11-|
G|-11h12p11h12----11h12p11h12----11h12p11h12----11h12p11h12----|
D|-------------------------------------------------------------|
A|-------------------------------------------------------------|
E|-------------------------------------------------------------|

e|-------------------------------------------------------------|
B|-12-12-12-12-12-12-12-12-12-12-11-11-11-11-11-11-11-11-11-11-|
G|-12-12-12-12-12-12-12-12-12-12-11-11-11-11-11-11-11-11-11-11-|
D|-------------------------------------------------------------|
A|-------------------------------------------------------------|
E|-------------------------------------------------------------|


Verso
e||-----------------------------||
B||-----------------------------||
G||--7/9-x-12	-----7/9-x-7--||
D||--7/9-x-12	-----7/9-x-7--||
A||--5/7-x-109------5/7-x-5--||
E||--5/7---109------5/7---5--||


Chorus
e||----------------------------||
B||----------------------------||
G||--7/9-9-9----------5-7-7-7--||
D||--7/9-9-9--5-7-5---5-7-7-7--||
A||--5/7-7-7--5-7-5---3-5-5-5--||
E||-----------3-5-3------------||


Ponte
e||-----------------------------||
B||-----------------------------||
G||-----------------------------||
D||-----------------------------||
A||------------------5----------||
E||--0-0-0-3-5-5-5-5---7-6-5-3--||


Solo
e||----------------7-7-6-6-----------6h7p6h7-------6h7p6h7--||
B||--(7)-8--7h8p7h8-------6-6-6h7p6h7-------6h7p6h7---------||
G||---------------------------------------------------------||
A||---------------------------------------------------------||
E||---------------------------------------------------------||		   
AcordesyTabs.com © 2008 Acordes y Tablaturas para guitarra. Tabs and Chords for guitar. Aviso Legal - Contacto
El uso de este sitio está sujeto a la aceptación de los términos y condiciones (26 usuarios online)