tablaturas, partituras y acordes para guitarra
Busca por banda/artista:
 
y/o título de la canción:
A B C D E F G H I J K L M N O P Q R S T U V W X Y Z 0 1 2 3 4 5 6 7 8 9 / Top 100 tabs
Categorías
Usuarios
usuario:
Darse de alta
password:
Artistas más visitados
Publicidad
TOP acordes y tablaturas de Rhapsody


Estás en: Inicio > Letra R > Acordes y tablaturas de Rhapsody > Dargor the shadowlord of the black mountain
Dargor the shadowlord of the black mountain
de Rhapsody
Puntúa este acorde/tab:      
(0.4/5)
Reportar este acorde/tab
  Añadir a tus favoritos
  Imprimir
Introdução
E-----------------------------------------------------------------------------------|
B-----------|-----------------------------------------------------------------------|
G--5--------|*--9----------10-----------9-----------7-----------5-------4~-/-9------|
D----9-7-6--|*--7-----------7-----------7-----------7-----------7-------6~-/-7------|
A-----------|------0-0-0-0-----0-0-0-0-----0-0-0-0-----0-0-0-0-----0-0----------0-0-|
E-----------------------------------------------------------------------------------|
                  pm......|   pm......|   pm......|   pm......|   pm..|        pm...

E-----------------------------------------------------------------------------------|
B--------------------------------------H.A.-----------------------------------------|
G-----10-----------9-----------10-------7~-b(9)--9----------10-----------9---------|
D------7-----------7------------7-----------------7-----------7-----------7---------|
A-0-0-----0-0-0-0-----0-0-0-0------0-0---------------0-0-0-0-----0-0-0-0-----0-0-0-0|
E-----------------------------------------------------------------------------------|
 ....|   pm......|   pm......|    pm..|             pm......|   pm......|   pm......|

                                                         (fim Intro) x2    Base 1
E-----------------------------------------------------------------------||----------|
B----------------------------------------------------9------------------||----------|
G-7-----------5-----------4~---------------------------9---------------*||---2------|
D-7-----------7-----------6~-----------------------------9~--10-9-7--*||---2----2|
A----0-0-0-0-----0-0-0-0------8-5-8---5-6---7---7---------------------||---0----2|
E-------------------------------------7-----5---0-----------------------||--------0|
    pm......|   pm......|    pm..............|

E-----------------------------------------------------------------------------------|
B-------------------------------------------6~--------------------------------------|
G---------4---------4----2-------4~---------7--7~--------2----7---------------------|
D---5-----4----2----4----2--/-2--4~----5----7-------3----2----7----7----5--/--7-----|
A---5-----2----2----2----0--/-4--2~----5----5-------3----0----5----7----5--/--7-----|
E---3----------0-----------------------3------------1--------------5----3--/--5-----|

  Ponte                                                             Refrão
E-----------------------------------------------------------------------------------|
B------------------------------------------------------------------|----------------|
G------------------------------------------------------------------|--5---------3--/|
D------------------------------------------------------------------|--5----5----3--/|
A----2-3~----------2-3~----------2-3~-----------2-3----------------|--3----5----1--/|
E--5------3~-5~--5------3~-1~--5-------3~-5~--5-----1~-3~--3--3~----------3--------|

E-----------------------------------------------------------------------------------|
B---------------------------------------------------------|-------------------------|
G--7---------5~-----------7-------------------------------|--9----------10----------|
D--7----3----5~----5-----7-------------------------------|--7-----------7----------|
A--5----3----3~----5-----5-------------2~--5~---3--------|-----0-0-0-0-----0-0-0-0-|
E-------1----------3----------1~--4~-------------7-5-4----------------------------|
        						       pm......|   pm......|

E-----------------------------------------------------------------------------------|
B-----------------------------------------------------------------------------------|
G-9-----------7-----------5-------4~-/-9----------10-----------9----------10------/-|
D-7-----------7-----------7-------6~-/-7-----------7-----------7-----------7--------|
A----0-0-0-0-----0-0-0-0-----0-0----------0-0-0-0-----0-0-0-0-----0-0-0-0-----0-0---|
E-----------------------------------------------------------------------------------|
    pm......|   pm......|   pm...|       pm......|   pm......|   pm......|   pm..|

E---10~-----------------------------------------------------------------------------|
B-----------------------------------------------------------------------------------|
G7~------7~---9----------10-----------9-----------7-----------5------4-------------|
D-------------7-----------7-----------7-----------7-----------7------6-------------|
A-----------------0-0-0-0-----0-0-0-0-----0-0-0-0-----0-0-0-0-----0-0-----8-5-8---|
E---------------------------------------------------------------------------------7-|
                 pm......|   pm......|   pm......|   pm......|   pm..|   pm.........

E-----------------------------------------------------------------------------------|
B--------------9--------------------------------------------------------------------|
G----------------9-----------------------------/-9----------10-----------9----------|
D------------------9~-/-10h12p10p9-------------/-7-----------7-----------7----------|
A-5-6---7---7----------------------12p10p9----------0-0-0-0-----0-0-0-0-----0-0-0-0-|
E-----5---0--------------------------------12~--------------------------------------|
 ......|                                           pm......|   pm......|   pm......|

E-----------------------------------------------------------------------------------|
B--------------------------------------------------------------------H.A.-----------|
G-7----------5-------4~-/-9----------10-----------9----------10-------7~-b(9)--r7~-/|
D-7----------7-------6~-/-7-----------7-----------7-----------7--------------------/|
A---0-0-0-0-----0-0----------0-0-0-0-----0-0-0-0-----0-0-0-0-----0-0----------------|
E-----------------------------------------------------------------------------------|
   pm......|   pm..|        pm......|   pm......|   pm.......|  pm..|

E-----------------------------------------------------------------------------------|
B------------------------------------------------------------------6-----8-----10---|
G-9----------10-----------9-----------7-----------5-------4~-----5-----7-----9------|
D-7-----------7-----------7-----------7-----------7-------6~-------5-----7------9-|
A----0-0-0-0-----0-0-0-0-----0-0-0-0-----0-0-0-0-----0-0----------------------------|
E-----------------------------------------------------------------------------------|
    pm......|   pm.......|  pm......|   pm.......|  pm..|

                                      Base 2
E-----------------------------------------------------------------------------------|
B---12----13~---12--/13--12--10--9--|-----------------------------------------------|
G11-------12~---11--/12--11---9--8--|---2--------------4---------4----2------4~-----|
D------10-----9-----/10---9---7--6--|---2----2----5----4----2----4----2--/2--4~---5|
A-----------------------------------|---0----2----5----2----2----2----0--/4--2~---5|
E--------------------------------------------0----3---------0---------------------3|

E-----------------------------------------------------------------------------------|
B-----------------------------------------------------------------------------------|
G--------------------------7------------------------------------------------------2-|
D--------------------------7--------------------------3--------------------------2-|
A--------------------------5-5-5-5-5-5-5-5-5-5-5-5-5--3--------------------------0-|
E-3-3-3-3-3-3-3-3-3-3-3-3-----------------------------1-1-1-1-1-1-1-1-1-1-1-1-1----|
 pm......................|  pm......................|   pm......................|
 
E-----------------------------------------------------------------------------------|
B-----------------------------------------------------------------------------------|
G--------------------------7--------------------------------------------------------|
D--------------------------7--------------------------7--------------------------5--|
A-0-0-0-0-0-0-0-0-0-0-0-0--5-5-5-5-5-5-5-5-5-5-5-5-5--7--------------------------5--|
E-----------------------------------------------------5-5-5-5-5-5-5-5-5-5-5-5-5--3-3|
 pm......................|  pm......................|  pm......................|  pm

E-----------------------------------------------------------------------------------|
B----------------------------------------------------|----------|----------|--------|
G----------------------------------------------------|--Ponte---|--Refrão--|*--9----|
D-----------------------/-7--------------------------|----------|----------|*--7----|
A-----------------------/-7--------------------------|----------|----------|------0-|
E-3-3-3-3-3-3-3-3-3-3-3-/-5-5-5-5-5-5-5-5-5-5-5-5-5---------------------------------|
 ......................|   pm......................|                             pm.

E-----------------------------------------------------------------------------------|
B-----------------------------------------------------------------------------------|
G-------10-----------9-----------7-----------5-------4~-/-9----------10-----------9-|
D--------7-----------7-----------7-----------7-------6~-/-7-----------7-----------7-|
A-0-0-0-----0-0-0-0-----0-0-0-0-----0-0-0-0-----0-0----------0-0-0-0-----0-0-0-0----|
E-----------------------------------------------------------------------------------|
 ......|   pm......|   pm......|   pm......|   pm...|       pm......|   pm......|		   
AcordesyTabs.com © 2008 Acordes y Tablaturas para guitarra. Tabs and Chords for guitar. Aviso Legal - Contacto
El uso de este sitio está sujeto a la aceptación de los términos y condiciones (35 usuarios online)