tablaturas, partituras y acordes para guitarra
Busca por banda/artista:
 
y/o título de la canción:
A B C D E F G H I J K L M N O P Q R S T U V W X Y Z 0 1 2 3 4 5 6 7 8 9 / Top 100 tabs
Categorías
Usuarios
usuario:
Darse de alta
password:
Artistas más visitados
Publicidad
TOP acordes y tablaturas de Fall out boy


Estás en: Inicio > Letra F > Acordes y tablaturas de Fall out boy > Sugar we're going down
Sugar we're going down
de Fall out boy
Puntúa este acorde/tab:      
(0.4/5)
Reportar este acorde/tab
  Añadir a tus favoritos
  Imprimir
Tuning: Drop D

Intro Guitar 1
e|------------------------------------------------------------|
B|------------------------------------------------------------|
G|------------------------------------------------------------|
D|-00000000-55555555-99999999-55555555------------------------|x2
A|-00000000-55555555-99999999-55555555------------------------|
D|-00000000-55555555-99999999-55555555------------------------|

Intro Guitar 2
e|------------------------------------------------------------|
B|-777-555-888-555-77-55--------------------------------------|
G|-777-777-777-777-77-77--------------------------------------|
D|------------------------------------------------------------|x2
A|------------------------------------------------------------|
D|------------------------------------------------------------|

Intro Guitar 2 Continued
e|------------------------------------------------------------|
B|-777-555-888-555-77-55-7~-----------------------------------|
G|-777-777-777-777-77-77-7~-----------------------------------|
D|------------------------------------------------------------|
A|------------------------------------------------------------|
D|------------------------------------------------------------|

Verse 1 Guitar 1 "Lie in the grass..."
e|------------------------------------------------------------|
B|------------------------------------------------------------|
G|-7-7-7-7--7-7-7-7-------------------------------------------|
D|-x-x-x-x--x-x-x-x-------------------------------------------|x4
A|-5-5-5-5--7-7-7-7-------------------------------------------|
D|------------------------------------------------------------|

Verse 1 Guitar 2  "Lie in the grass..."
e|------------------------------------------------------------|
B|------------------------------------------------------------|
G|------------------------------------------------------------|
D|-77-7-7h9-7------7h9-7--------------------------------------|
A|-55-5-5---5---7h9-----7-------------------------------------|
D|------------------------------------------------------------|
   ** 

Verse 1 Guitar 2 Continued
e|------------------------------------------------------------|
B|------------------------------------------------------------|
G|------------------------------------------------------------|
D|-7-7-7h9-7------7h9-7---------------------------------------|x3
A|-5-5-5---5---7h9-----7--------------------------------------|
D|------------------------------------------------------------|

Pre Chorus "Drop a heart..." (palm mute)
e|--------------------------------------------------------------------|
B|--------------------------------------------------------------------|
G|--------------------------------------------------------------------|
D|-000000-55555555-777777-99999999-101010101010-99999999-555555555555-|
A|-000000-55555555-777777-99999999-101010101010-99999999-555555555555-|
D|-000000-55555555-777777-99999999-101010101010-99999999-555555555555-|
   
Chorus
e|--------------------------------------------------------------------|
B|--------------------------------------------------------------------|
G|--------------------------------------------------------------------|
D|-0000000000000000-5555555555555555-999999999999999-5555555555555555-|
A|-0000000000000000-5555555555555555-999999999999999-5555555555555555-|
D|-0000000000000000-5555555555555555-999999999999999-5555555555555555-|

Chorus Continued
e|------------------------------------------------------------|
B|------------------------------------------------------------|
G|-----777-----777-----777-----777----------------------------|
D|-000-xxx-000-xxx-555-xxx-555-xxx----------------------------|
A|-000-555-000-555-555-555-555-555----------------------------|
D|-000-----000-----555-----555--------------------------------|

Chorus Continued
e|------------------------------------------------------------|
B|------------------------------------------------------------|
G|-----111111-----111111-----777-----777----------------------|
D|-999-x-x-x--999-x-x-x--555-xxx-555-xxx----------------------|
A|-999-9-9-9--999-9-9-9--555-555-555-555----------------------|
D|-999--------999--------555-----555--------------------------|

Pre Verse
e|------------------------------------------------------------|
B|------------------------------------------------------------|
G|------------------------------------------------------------|
D|-0000-0-00-555-555-55-55-7777-7-999-999-99-99-10101010-10---|
A|-0000-0-00-555-555-55-55-7777-7-999-999-99-99-10101010-10---|
D|-0000-0-00-555-555-55-55-7777-7-999-999-99-99-10101010-10---|
   ****   ** *** *** *  *  ****   *** *** *  *  ********

Pre Verse Continued
e|-------------------------------------------------------------|
B|-------------------------------------------------------------|
G|---------------------7~--------------------------------------|
D|-999-999-99-99---5~--7~--------------------------------------|
A|-999-999-99-99---5~--5~--------------------------------------|
D|-999-999-99-99---5~------------------------------------------|
   *** *** *  *

Verse 2 Guitar 1 "Is this more than..." (palm muted)
e|--------------------------------------------------------------|
B|--------------------------------------------------------------|
G|--------------------------------------------------------------|
D|-00000000-55555555-99999999-55555555--------------------------|x4
A|-00000000-55555555-99999999-55555555--------------------------|
D|-00000000-55555555-99999999-55555555--------------------------|

Verse 2 Guitar 2 "Isn't it messed up"
e|--------------------------------------------------------------|
B|--------------------------------------------------------------|
G|--7777-7-7--7-7-7-7-------------------------------------------|
D|--xxxx-x-x--x-x-x-x-------------------------------------------|x4
A|--5555-5-5--7-7-7-7-------------------------------------------|
E|--------------------------------------------------------------|

Pre Chorus "Drop a heart..." (palm mute)
e|--------------------------------------------------------------------|
B|--------------------------------------------------------------------|
G|--------------------------------------------------------------------|
D|-000000-55555555-777777-99999999-101010101010-99999999-555555555555-|
A|-000000-55555555-777777-99999999-101010101010-99999999-555555555555-|
D|-000000-55555555-777777-99999999-101010101010-99999999-555555555555-|


Chorus
e|--------------------------------------------------------------------|
B|--------------------------------------------------------------------|
G|--------------------------------------------------------------------|
D|-0000000000000000-5555555555555555-999999999999999-5555555555555555-|
A|-0000000000000000-5555555555555555-999999999999999-5555555555555555-|
D|-0000000000000000-5555555555555555-999999999999999-5555555555555555-|

Chorus Continued
e|------------------------------------------------------------|
B|------------------------------------------------------------|
G|-----777-----777-----777-----777----------------------------|
D|-000-xxx-000-xxx-555-xxx-555-xxx----------------------------|
A|-000-555-000-555-555-555-555-555----------------------------|
D|-000-----000-----555-----555--------------------------------|

Chorus Continued
e|------------------------------------------------------------|
B|------------------------------------------------------------|
G|-----111111-----111111-----777-----777----------------------|
D|-999-x-x-x--999-x-x-x--555-xxx-555-xxx----------------------|
A|-999-9-9-9--999-9-9-9--555-555-555-555----------------------|
D|-999--------999--------555-----555--------------------------|

Interlude Guitar 1
e|------------------------------------------------------------|
B|------------------------------------------------------------|
G|------------------------------------------------------------|
D|-5-222-0~-------5~--------0~--------5~-----------55---------|
A|-5-222-0~-------5~--------0~--------5~-----------55---------|
D|-5-222-0~-------5~--------0~--------5~-----------55---------|
* ***
Interlude Guitar 2
e|------------------------------------------------------------|
B|-777-555-888-555-77-55--------------------------------------|
G|-777-777-777-777-77-77--------------------------------------|
D|------------------------------------------------------------|x3
A|------------------------------------------------------------|
D|------------------------------------------------------------|

Interlude Continued Guitar 1 (palm muted)
e|--------------------------------------------------------------|
B|--------------------------------------------------------------|
G|--------------------------------------------------------------|
D|-00000-00000-55555-55555-99999-99999-55555-55555--------------|
A|-00000-00000-55555-55555-99999-99999-55555-55555--------------|
D|-00000-00000-55555-55555-99999-99999-55555-55555--------------|

Interlude Continued Guitar 2 
e|--------------------------------------------------------------|
B|--------------------------------------------------------------|
G|------6h7-6h7-7-----6h7-6h7-7---------------------------------|
D|-----7---7---7-----7---7---7----------------------------------|x4
A|--------------------------------------------------------------|
D|--------------------------------------------------------------|

Interlude Continued Guitar 1
e|--------------------------------------------------------------|
B|--------------------------------------------------------------|
G|--------------------------------------------------------------|
D|-0000000000000000-5555555555555555-9999999999999999-5---------|
A|-0000000000000000-5555555555555555-9999999999999999-5---------|
D|-0000000000000000-5555555555555555-9999999999999999-5---------|

Interlude Continued Guitar 2
e|--------------------------------------------------------------|
B|--------------------------------------------------------------|
G|------6h7-6h7-7-----6h7-6h7-7---------------------------------|
D|-----7---7---7-----7---7---7----------------------------------|x3
A|--------------------------------------------------------------|
D|--------------------------------------------------------------|

Interlude Continued Guitar 3
e|--------------------------------------------------------------|
B|-777-555-888-555-77-55----------------------------------------|
G|-777-777-777-777-77-77----------------------------------------|
D|--------------------------------------------------------------|x3
A|--------------------------------------------------------------|
D|--------------------------------------------------------------|

Outro Guitar 1
e|------------------|
B|------------------|
G|------------------|
D|-5-222-0~---------|
A|-5-222-0~---------|
D|-5-222-0~---------|


Outro Guitar 2 (fades out)
e|--------------------------------------------------------------|
B|-777-555-888-555-77-55----------------------------------------|
G|-777-777-777-777-77-77----------------------------------------|
D|--------------------------------------------------------------|x2
A|--------------------------------------------------------------|
D|--------------------------------------------------------------|		   
AcordesyTabs.com © 2008 Acordes y Tablaturas para guitarra. Tabs and Chords for guitar. Aviso Legal - Contacto
El uso de este sitio está sujeto a la aceptación de los términos y condiciones (45 usuarios online)