tablaturas, partituras y acordes para guitarra
Busca por banda/artista:
 
y/o título de la canción:
A B C D E F G H I J K L M N O P Q R S T U V W X Y Z 0 1 2 3 4 5 6 7 8 9 / Top 100 tabs
Categorías
Usuarios
usuario:
Darse de alta
password:
Artistas más visitados
Publicidad
TOP acordes y tablaturas de P.o.d.


Estás en: Inicio > Letra P > Acordes y tablaturas de P.o.d. > Find my way
Find my way
de P.o.d.
Puntúa este acorde/tab:      
(0.1/5)
Reportar este acorde/tab
  Añadir a tus favoritos
  Imprimir
(0:00) intro
d|--------------------------------------------| 
A|--------------------------------------------|
F|--------------------------------------------|
C|-9999(b9)-----(b9)(b9)----------77777---------5-5-|  x2
G|-77777-10---7-7---10-10---77777---5-5---3-3-|
D|-------8--x------x-8--8-x-55555-x-3-3-x-----|
  
(0:12) verso
d|-------2-----------------|--------------------------|
A|---------3---------7-(8)-|--------------------------|
F|---4---------4-0---------|-5h7-4--5h7-4--5h7-4--4-0-|
C|-------------------------|--------------------------|  x4
G|-----3-----5-------------|--------------------------|
D|-0---------------5-------|--------------------------|
 
 (0:36) refrão (I)
d|--------------------------------------------| 
A|--------------------------------------------|
F|--------------------------------------------|
C|-9999(b9)-----(b9)(b9)----------77777---------5-5-|  x2
G|-77777-10---7-7---10-10---77777---5-5---3-3-|
D|-------8--x------x-8--8-x-55555-x-3-3-x-----|
  
(0:48) refrão (II)
d|----------------------------------------------------|
A|-1010101010-(b9)10101010-(b9)10101010-(b9)11111111-131313-|
F|-(b9)(b9)(b9)(b9)(b9)-8-(b9)(b9)(b9)(b9)-8-(b9)(b9)(b9)(b9)-8-10101010-121212-|
C|-7-7-7-7-7--5-7-7-7-7--5-7-7-7-7--5-8-8-8-8--101010-|  x2
G|----------------------------------------------------|
D|----------------------------------------------------|
  
(1:00) verso
d|-------2-----------------|--------------------------|
A|---------3---------7-(8)-|--------------------------|
F|---4---------4-0---------|-5h7-4--5h7-4--5h7-4--4-0-|
C|-------------------------|--------------------------|  x5
G|-----3-----5-------------|--------------------------|
D|-0---------------5-------|--------------------------|
  
(1:29) refrão (I)
d|--------------------------------------------| 
A|--------------------------------------------|
F|--------------------------------------------|
C|-9999(b9)-----(b9)(b9)----------77777---------5-5-|  x2
G|-77777-10---7-7---10-10---77777---5-5---3-3-|
D|-------8--x------x-8--8-x-55555-x-3-3-x-----|
  
(1:41) refrão (II)
d|----------------------------------------------------|
A|-1010101010-(b9)10101010-(b9)10101010-(b9)11111111-131313-|
F|-(b9)(b9)(b9)(b9)(b9)-8-(b9)(b9)(b9)(b9)-8-(b9)(b9)(b9)(b9)-8-10101010-121212-|
C|-7-7-7-7-7--5-7-7-7-7--5-7-7-7-7--5-8-8-8-8--101010-|  x2
G|----------------------------------------------------|
D|----------------------------------------------------|
  
(1:53) ponte
d|---------------------------------------------|
A|---------------------------------------------|
F|---------------------------------------------|
C|-999(b9)5-2-----------10101010-5-5-7777-101010-|  x2
G|-999(b9)5-2--2---2----10101010-5-5-7777-101010-|
D|-7777-3-0---3-0-3-0-8-8-8-8--3-3-5555-8-8-8--|
  
(2:05) ;)
d|-------------------------------------------------------|
A|-------------------------------------------------------|
F|-----------------------555-------------------------444-|
C|-101010-777-5----5---5-555-------------------5---5-444-|  x2
G|-101010-777-5----5---5-333-------2-----2-2---5---5-222-|
D|-8-8-8--555-3--x-3-x-3-------0-3~---0-3--0---3-0-3-----|
  
(2:17)
d|------------------------------------------|
A|-1010101010-(b9)10101010-(b9)10101010-(b9)11-13-|
F|-(b9)(b9)(b9)(b9)(b9)-8-(b9)(b9)(b9)(b9)-8-(b9)(b9)(b9)(b9)-8-10-12-|
C|-7-7-7-7-7--5-7-7-7-7--5-7-7-7-7--5-8--10-|  x2
G|------------------------------------------|
D|------------------------------------------|
  
(2:23) 
d|--------------------------------------------| 
A|--------------------------------------------|
F|--------------------------------------------|
C|-9999(b9)-----(b9)(b9)----------77777---------5-5-|  x2
G|-77777-10---7-7---10-10---77777---5-5---3-3-|
D|-------8--x------x-8--8-x-55555-x-3-3-x-----|
  
(2:34) 
d|----------------------------------------------------|
A|-1010101010-(b9)10101010-(b9)10101010-(b9)11111111-131313-|
F|-(b9)(b9)(b9)(b9)(b9)-8-(b9)(b9)(b9)(b9)-8-(b9)(b9)(b9)(b9)-8-10101010-121212-|
C|-7-7-7-7-7--5-7-7-7-7--5-7-7-7-7--5-8-8-8-8--101010-|  x2
G|----------------------------------------------------|
D|----------------------------------------------------|

(2:46)
d|---------------------------------------------|
A|---------------------------------------------|
F|---------------------------------------------|
C|-999(b9)5-2-----------10101010-5-5-7777-101010-|  x2
G|-999(b9)5-2--2---2----10101010-5-5-7777-101010-|
D|-7777-3-0---3-0-3-0-8-8-8-8--3-3-5555-8-8-8--|
  
(2:58) fim
d|-------2------------------|
A|---------3------------7-8-|
F|---4----------4-74--------|
C|--------------------------|
G|-----3------5-------------|
D|-0------------------5-----|		   
AcordesyTabs.com © 2008 Acordes y Tablaturas para guitarra. Tabs and Chords for guitar. Aviso Legal - Contacto
El uso de este sitio está sujeto a la aceptación de los términos y condiciones (22 usuarios online)