tablaturas, partituras y acordes para guitarra
Busca por banda/artista:
 
y/o título de la canción:
A B C D E F G H I J K L M N O P Q R S T U V W X Y Z 0 1 2 3 4 5 6 7 8 9 / Top 100 tabs
Categorías
Usuarios
usuario:
Darse de alta
password:
Artistas más visitados
Publicidad
TOP acordes y tablaturas de My chemical romance


Estás en: Inicio > Letra M > Acordes y tablaturas de My chemical romance > Welcome to the black parade
Welcome to the black parade
de My chemical romance
Puntúa este acorde/tab:      
(0.4/5)
Reportar este acorde/tab
  Añadir a tus favoritos
  Imprimir
Introdução piano:

e|-15---14-1(b9)--------15----------12----------| 
B|-------------17--15----13----12----------15-| 8x
G|-----------------------------------14-------| 

Guitarra 1:

  Solinho junto com o piano:

e|---------------------------------------------------------------| 
B|---------------12-15/17/15-12---13-15/17/15-12--12/13/12-------| 
G|-12------12-14-------------------------------------------12/14-| 
D|----12---------------------------------------------------------| 4x

  O Primeiro solo:

e|---------------|--------------------------------------------------------- 
B|---------------|-----------------------12-15^(17)r15-12~~--15^(17)r15-12~ 
G|---------------|--12~----12-14~-12-14------------------------------------ 
D|-12^(14)r12-10~|------12------------------------------------------------- 

G|---------------|--------------------------16^(17)r16-------16^(17)r16---- 
D|---------------|--14~----14-16~-14-16--17------------17~~-------------17- 
A|---------------|------14------------------------------------------------- 
E|---------------|--------------------------------------------------------- 
 
  Base da guitarra 2 no primeiro solo:

G|---------------|-----------------------------7--------5--------4--------- 
D|---------------|--5--------4--------2--------7--------5--------5-------7- 
A|---------------|--5--------5--------2--------5--------3--------2-------7-
E|---------------|--3--------2--------0----------------------------------5- 
 
continuação do primeiro solo guitarra 1:

e|---------------------|    e|---------------------| 
B|-12^(13)r12----------| 2x B|-15^(17)r15--12-13~~-| 2x
G|-------------12-14~~-| 
 
continuação do primeiro solo guitarra 2:

e|---------------------| 
B|---------------------| 
G|-12^(14)r12----------| 
D|-------------14-16~~-| 2x

G|-7-------------------|--/ 
D|-7-------------------|--/ 
A|-5-------------------|x2/ 
E|---------------------|--/ 
 
Finalzinho do solo:

 Guitarra 1:

e|--------------------------|
B|-12^(13)r12---------------|
G|-------------12-14~12~~~~-|

Guitarra 2:

G|-12^(14)r12---------------|
D|-------------14-16~14~~~~-|

Guitarra 1: 

B|-15^(17)r15--12-13~12~~~~-| 

Guitarra 2:
D|-7--------------5---------| 
A|-5--------------5---------| 
E|----------------3---------| 
 
Introdução 2:

 Guitarra 1:

G|----------------------------444444444-5555555555555555-7777777777777777-| 
D|-55555555-55555555-22222222-444444444-5555555555555555-7777777777777777-| 
A|-55555555-55555555-22222222-222222222-3333333333333333-5555555555555555-| 
E|-33333333-22222222-00000000---------------------------------------------| 

Guitarra 2:

B|--------------------------15-15-15-15/17/15-12-12-12-12/13/12---
G|-12-12-12-12-14-14-14-14----------------------------------------
D|--------------------------12-12-12-12/14/12-(b9)(b9)(b9)(b9)/10(b9)------
A|-10-10-10-10-12-12-12-12----------------------------------------

B|------------------------------12121212/13-----| 
G|12-12-12-12-12-12-12-12-12-----------------14-| 
D|------------------------------(b9)(b9)(b9)(b9)/10-----| 
A|10-10-10-10-10-10-10-10-10-----------------12-| 

Versos 1 e 2

 Guitarra 1 e a 2 Ate onde ta marcado:
                                                           |         |
G|----------------------------777777777-555555555-444444444-222222222--
D|-55555555-44444444-22222222-777777777-555555555-555555555-222222222--
A|-55555555-55555555-22222222-555555555-333333333-222222222-000000000--
E|-33333333-22222222-00000000------------------------------------------
Pm ........ ........ ........ .. .. ..  ......... ......... .........
 
Depois a guitarra 2 faz isso
e|----------------------| 
B|-----------------5*---| 
G|-7-7-7(b9)(b9)----5---5*-| 
D|-----------5-5--------| 
A|-5-5-5/7-7------------| 
E|----------------------| 

 Continuação:   

G|----------------------------777777777-555555555-444444444-222222222--
D|-55555555-44444444-22222222-777777777-555555555-555555555-222222222--
A|-55555555-55555555-22222222-555555555-333333333-222222222-000000000--
E|-33333333-22222222-00000000------------------------------------------
Pm .. .. .  .. .. .  .. .. ..  .. .. .. .. .. ..  .. .. ..  .. .. .. 



Refrão:

Guitarra 1: 
G|----------------------------444444444-5555555555555555777777777777777|--| 
D|-55555555-44444444-22222222-555555555-5555555555555555777777777777777|--| 
A|-55555555-55555555-22222222-222222222-3333333333333333555555555555555|x2| 
E|-33333333-22222222-00000000------------------------------------------|--| 
 
Guitarra 2:
G|-12121212/11111111/999(b9)12/14-|-1717171717171717-161616/17/14141414-|
D|------------------------------|-------------------------------------|
A|-10101010(b9)(b9)(b9)(b9)/7777-10/12-|-1515151515151515-141414/15/12121212-|
E|------------------------------|-------------------------------------|
                                  
G|-1717/16/1414/99(b9)16161616/17/14141414-| 
D|---------------------------------------| 
A|-1515/14/1212/777-14141414/15/12121212-|
 
Verso:

Ponte para o coral depois o solo:
 
G|-----------------------------------------|--|-9~-------------------------| 
D|-44-4--4--4--4--4-4---9(b9)(b9)-(b9)-(b9)-(b9)-(b9)(b9)|--|-9~-----------------(b9)8-7-4-| 
A|-22-2--2--2--2--2-2---77-7--7--7--7--7-7-|x2|-7~-----------------7-6-5-2-| 
E|-----------------------------------------|--|----------------------------| 
 
G|-16-17-14-12-14-12-11--9(b9)(b9)(b9)9/11-11/12-|--|-16171414-1612--17-16-14-16-| 
D|-----------------------------------------|--|----------------------------| 
A|-14-15-12-10-12-10-(b9)--77-7-7-7(b9)-(b9)/10-|x2|-14151212-1410--15-14-12-14-| 
E|-----------------------------------------|--|----------------------------| 
 
solo 2 Junto com coral

Base de guitarra 2 e da parte que e cantada com o coral:

D|----------4--5-----5--7--|--| 
A|-5--5--2--2--3--5--3--5--|x2| 
E|-3--2--0--------3--------|--| 
 
Guitarra 1:		   
AcordesyTabs.com © 2008 Acordes y Tablaturas para guitarra. Tabs and Chords for guitar. Aviso Legal - Contacto
El uso de este sitio está sujeto a la aceptación de los términos y condiciones (40 usuarios online)