tablaturas, partituras y acordes para guitarra
Busca por banda/artista:
 
y/o título de la canción:
A B C D E F G H I J K L M N O P Q R S T U V W X Y Z 0 1 2 3 4 5 6 7 8 9 / Top 100 tabs
Categorías
Usuarios
usuario:
Darse de alta
password:
Artistas más visitados
Publicidad
TOP acordes y tablaturas de Elvis presley


Estás en: Inicio > Letra E > Acordes y tablaturas de Elvis presley > Sweet caroline
Sweet caroline
de Elvis presley
Puntúa este acorde/tab:      
(0.5/5)
Reportar este acorde/tab
  Añadir a tus favoritos
  Imprimir
Tom: B

Standard tuning.

    Intro:
    e |  | ---------------------------------------------------------------------- | 
    B |  | ---------------------------------------------------------------------- | 
    G |  | ---------------------------------------------------------------------- | 
    D |  | -----------------------------------6--8--(b9)----8-6-8-(b9)8-6--(b9)8-6----- | 
    A |  | --4--6--7-----6-4-6-7-6-4--7-6-4-------------------------.------.----- | 
    E |  | ------------------------.------.-------------------------------------- | 

    e |  | --------------------------------11-----(b9)-- |  | 
    B |  | ------------------------------------------- |  | 
    G |  | --6--8--(b9)----8-6-8-(b9)----8-----11-----(b9)-- |  | 
    D |  | ------------------------------------------- |  | 
    A |  | ------------------------------------------- |  | 
    E |  | ------------------------------------------- |  | 


    Riff 1:
    e |  | --------------------------------- |  | 
    B |  | ------7-------5-------4-------2-- |  | 
    G |  | --------------------------------- |  | 
    D |  | --/8-----8-----6-----4----- |  | 
    A |  | --------------------------------- |  | 
    E |  | --------------------------------- |  | 

    Riff 2:
    e |  | --12--11------- |  | 
    B |  | ----------(b9)--- |  | 
    G |  | --------------- |  | 
    D |  | --------------- |  | 
    A |  | --------------- |  | 
    E |  | --------------- |  | 




   B              E
    Where it began, I can't begin to know when
   B                             F#     Riff 1)
    But then I know it's growing strong
   B                      E
    Oh, wasn't the spring, whooo
   E
    And spring became the summer
   B                         F#    Riff 1)
    Who'd believe you'd come along


    B    G#m              F#
    Hands, touching hands, reaching out
    E                     F#
    Touching me, touching you
        B         E    Riff 2)
    Oh, sweet Caroline
                             F#     Riff 1)
    Good times never seem so good
        B          E  Riff2)                F#     (Riff 1)
    Oh, I made him climb to believe it never would, and now I,


   B
    I look at the night, whooo
   E
    And it don't seem so lonely
   B                        F#      Riff 1)
    We fill it up with only two, oh
   B
    And when I hurt
   E
    Hurting runs off my shoulder
   B                            F#  (Riff 1)
    How can I hurt when holding you


       B    G#m           F#
    Oh, one, touching one, reaching out
    E                     F#
    Touching me, touching you
        B         E    (Riff 2)
    Oh, sweet Caroline
                             F#     (Riff 1)
    Good times never seem so good
        B          E  (Riff2)                F#     (Riff 1)
    Oh, I made him climb to believe it never would
        B          E  (Riff2)                    F#     (Riff 1)
    Oh, sweet Caroline, good times never seem so good
        B          E  (Riff2)                F#   (Riff 1)
    Oh, I made him climb to believe it never 		   
AcordesyTabs.com © 2008 Acordes y Tablaturas para guitarra. Tabs and Chords for guitar. Aviso Legal - Contacto
El uso de este sitio está sujeto a la aceptación de los términos y condiciones (27 usuarios online)